ISO-10303-21;
HEADER;
/* Generated by software containing ST-Developer
 * from STEP Tools, Inc. (www.steptools.com) 
 */
/* OPTION: strings as raw bytes, not using required /X/ escapes */

FILE_DESCRIPTION(
/* description */ ('Unknown'),
/* implementation_level */ '2;1');

FILE_NAME(
/* name */ '_PV-KP-M12-S',
/* time_stamp */ '2021-01-18T17:53:23+05:00',
/* author */ ('Unknown'),
/* organization */ ('Unknown'),
/* preprocessor_version */ 'ST-DEVELOPER v16.7',
/* originating_system */ 'Solid Edge',
/* authorisation */ 'Unknown');

FILE_SCHEMA (('AUTOMOTIVE_DESIGN {1 0 10303 214 3 1 1}'));
ENDSEC;

DATA;
#10=PROPERTY_DEFINITION_REPRESENTATION(#14,#12);
#11=PROPERTY_DEFINITION_REPRESENTATION(#15,#13);
#12=REPRESENTATION('',(#16),#705);
#13=REPRESENTATION('',(#17),#705);
#14=PROPERTY_DEFINITION('pmi validation property','',#710);
#15=PROPERTY_DEFINITION('pmi validation property','',#710);
#16=VALUE_REPRESENTATION_ITEM('number of annotations',COUNT_MEASURE(0.));
#17=VALUE_REPRESENTATION_ITEM('number of views',COUNT_MEASURE(0.));
#18=SHAPE_REPRESENTATION_RELATIONSHIP('','',#429,#19);
#19=ADVANCED_BREP_SHAPE_REPRESENTATION('',(#427),#705);
#20=CYLINDRICAL_SURFACE('',#458,2.6);
#21=CYLINDRICAL_SURFACE('',#460,2.59999999999999);
#22=CYLINDRICAL_SURFACE('',#462,2.59999999999999);
#23=CYLINDRICAL_SURFACE('',#464,2.6);
#24=CYLINDRICAL_SURFACE('',#465,6.05);
#25=CYLINDRICAL_SURFACE('',#466,6.);
#26=CYLINDRICAL_SURFACE('',#467,6.);
#27=CYLINDRICAL_SURFACE('',#468,6.);
#28=CYLINDRICAL_SURFACE('',#469,6.);
#29=CIRCLE('',#438,6.05);
#30=CIRCLE('',#439,2.59999999999999);
#31=CIRCLE('',#440,2.6);
#32=CIRCLE('',#441,2.6);
#33=CIRCLE('',#442,2.59999999999999);
#34=CIRCLE('',#443,6.);
#35=CIRCLE('',#444,6.);
#36=CIRCLE('',#445,6.);
#37=CIRCLE('',#446,6.);
#38=CIRCLE('',#448,6.05);
#39=CIRCLE('',#449,2.59999999999999);
#40=CIRCLE('',#450,2.6);
#41=CIRCLE('',#451,2.6);
#42=CIRCLE('',#452,2.59999999999999);
#43=CIRCLE('',#453,6.);
#44=CIRCLE('',#454,6.);
#45=CIRCLE('',#455,6.);
#46=CIRCLE('',#456,6.);
#47=ORIENTED_EDGE('',*,*,#159,.T.);
#48=ORIENTED_EDGE('',*,*,#160,.T.);
#49=ORIENTED_EDGE('',*,*,#161,.F.);
#50=ORIENTED_EDGE('',*,*,#162,.T.);
#51=ORIENTED_EDGE('',*,*,#163,.F.);
#52=ORIENTED_EDGE('',*,*,#164,.T.);
#53=ORIENTED_EDGE('',*,*,#165,.T.);
#54=ORIENTED_EDGE('',*,*,#166,.T.);
#55=ORIENTED_EDGE('',*,*,#167,.T.);
#56=ORIENTED_EDGE('',*,*,#168,.T.);
#57=ORIENTED_EDGE('',*,*,#169,.F.);
#58=ORIENTED_EDGE('',*,*,#166,.F.);
#59=ORIENTED_EDGE('',*,*,#170,.F.);
#60=ORIENTED_EDGE('',*,*,#171,.T.);
#61=ORIENTED_EDGE('',*,*,#172,.T.);
#62=ORIENTED_EDGE('',*,*,#173,.T.);
#63=ORIENTED_EDGE('',*,*,#174,.F.);
#64=ORIENTED_EDGE('',*,*,#175,.T.);
#65=ORIENTED_EDGE('',*,*,#176,.T.);
#66=ORIENTED_EDGE('',*,*,#177,.T.);
#67=ORIENTED_EDGE('',*,*,#178,.T.);
#68=ORIENTED_EDGE('',*,*,#179,.T.);
#69=ORIENTED_EDGE('',*,*,#180,.F.);
#70=ORIENTED_EDGE('',*,*,#177,.F.);
#71=ORIENTED_EDGE('',*,*,#181,.T.);
#72=ORIENTED_EDGE('',*,*,#182,.F.);
#73=ORIENTED_EDGE('',*,*,#183,.F.);
#74=ORIENTED_EDGE('',*,*,#184,.F.);
#75=ORIENTED_EDGE('',*,*,#185,.F.);
#76=ORIENTED_EDGE('',*,*,#186,.T.);
#77=ORIENTED_EDGE('',*,*,#187,.T.);
#78=ORIENTED_EDGE('',*,*,#188,.T.);
#79=ORIENTED_EDGE('',*,*,#189,.T.);
#80=ORIENTED_EDGE('',*,*,#165,.F.);
#81=ORIENTED_EDGE('',*,*,#190,.T.);
#82=ORIENTED_EDGE('',*,*,#159,.F.);
#83=ORIENTED_EDGE('',*,*,#191,.T.);
#84=ORIENTED_EDGE('',*,*,#178,.F.);
#85=ORIENTED_EDGE('',*,*,#176,.F.);
#86=ORIENTED_EDGE('',*,*,#192,.T.);
#87=ORIENTED_EDGE('',*,*,#172,.F.);
#88=ORIENTED_EDGE('',*,*,#193,.T.);
#89=ORIENTED_EDGE('',*,*,#167,.F.);
#90=ORIENTED_EDGE('',*,*,#194,.T.);
#91=ORIENTED_EDGE('',*,*,#195,.F.);
#92=ORIENTED_EDGE('',*,*,#196,.F.);
#93=ORIENTED_EDGE('',*,*,#197,.F.);
#94=ORIENTED_EDGE('',*,*,#198,.F.);
#95=ORIENTED_EDGE('',*,*,#199,.T.);
#96=ORIENTED_EDGE('',*,*,#200,.T.);
#97=ORIENTED_EDGE('',*,*,#201,.T.);
#98=ORIENTED_EDGE('',*,*,#202,.T.);
#99=ORIENTED_EDGE('',*,*,#161,.T.);
#100=ORIENTED_EDGE('',*,*,#203,.T.);
#101=ORIENTED_EDGE('',*,*,#163,.T.);
#102=ORIENTED_EDGE('',*,*,#169,.T.);
#103=ORIENTED_EDGE('',*,*,#204,.T.);
#104=ORIENTED_EDGE('',*,*,#170,.T.);
#105=ORIENTED_EDGE('',*,*,#205,.T.);
#106=ORIENTED_EDGE('',*,*,#174,.T.);
#107=ORIENTED_EDGE('',*,*,#180,.T.);
#108=ORIENTED_EDGE('',*,*,#206,.T.);
#109=ORIENTED_EDGE('',*,*,#207,.T.);
#110=ORIENTED_EDGE('',*,*,#186,.F.);
#111=ORIENTED_EDGE('',*,*,#208,.F.);
#112=ORIENTED_EDGE('',*,*,#200,.F.);
#113=ORIENTED_EDGE('',*,*,#209,.T.);
#114=ORIENTED_EDGE('',*,*,#187,.F.);
#115=ORIENTED_EDGE('',*,*,#207,.F.);
#116=ORIENTED_EDGE('',*,*,#199,.F.);
#117=ORIENTED_EDGE('',*,*,#210,.T.);
#118=ORIENTED_EDGE('',*,*,#188,.F.);
#119=ORIENTED_EDGE('',*,*,#209,.F.);
#120=ORIENTED_EDGE('',*,*,#202,.F.);
#121=ORIENTED_EDGE('',*,*,#208,.T.);
#122=ORIENTED_EDGE('',*,*,#189,.F.);
#123=ORIENTED_EDGE('',*,*,#210,.F.);
#124=ORIENTED_EDGE('',*,*,#201,.F.);
#125=ORIENTED_EDGE('',*,*,#195,.T.);
#126=ORIENTED_EDGE('',*,*,#211,.T.);
#127=ORIENTED_EDGE('',*,*,#183,.T.);
#128=ORIENTED_EDGE('',*,*,#212,.F.);
#129=ORIENTED_EDGE('',*,*,#196,.T.);
#130=ORIENTED_EDGE('',*,*,#212,.T.);
#131=ORIENTED_EDGE('',*,*,#182,.T.);
#132=ORIENTED_EDGE('',*,*,#213,.F.);
#133=ORIENTED_EDGE('',*,*,#197,.T.);
#134=ORIENTED_EDGE('',*,*,#213,.T.);
#135=ORIENTED_EDGE('',*,*,#185,.T.);
#136=ORIENTED_EDGE('',*,*,#214,.F.);
#137=ORIENTED_EDGE('',*,*,#198,.T.);
#138=ORIENTED_EDGE('',*,*,#214,.T.);
#139=ORIENTED_EDGE('',*,*,#184,.T.);
#140=ORIENTED_EDGE('',*,*,#211,.F.);
#141=ORIENTED_EDGE('',*,*,#194,.F.);
#142=ORIENTED_EDGE('',*,*,#181,.F.);
#143=ORIENTED_EDGE('',*,*,#192,.F.);
#144=ORIENTED_EDGE('',*,*,#175,.F.);
#145=ORIENTED_EDGE('',*,*,#205,.F.);
#146=ORIENTED_EDGE('',*,*,#173,.F.);
#147=ORIENTED_EDGE('',*,*,#193,.F.);
#148=ORIENTED_EDGE('',*,*,#171,.F.);
#149=ORIENTED_EDGE('',*,*,#204,.F.);
#150=ORIENTED_EDGE('',*,*,#168,.F.);
#151=ORIENTED_EDGE('',*,*,#191,.F.);
#152=ORIENTED_EDGE('',*,*,#162,.F.);
#153=ORIENTED_EDGE('',*,*,#206,.F.);
#154=ORIENTED_EDGE('',*,*,#179,.F.);
#155=ORIENTED_EDGE('',*,*,#190,.F.);
#156=ORIENTED_EDGE('',*,*,#164,.F.);
#157=ORIENTED_EDGE('',*,*,#203,.F.);
#158=ORIENTED_EDGE('',*,*,#160,.F.);
#159=EDGE_CURVE('',#215,#216,#253,.T.);
#160=EDGE_CURVE('',#216,#217,#254,.T.);
#161=EDGE_CURVE('',#218,#217,#255,.T.);
#162=EDGE_CURVE('',#218,#215,#256,.F.);
#163=EDGE_CURVE('',#219,#220,#257,.T.);
#164=EDGE_CURVE('',#219,#221,#258,.F.);
#165=EDGE_CURVE('',#221,#222,#259,.T.);
#166=EDGE_CURVE('',#222,#220,#260,.T.);
#167=EDGE_CURVE('',#222,#223,#261,.T.);
#168=EDGE_CURVE('',#223,#224,#262,.T.);
#169=EDGE_CURVE('',#220,#224,#263,.T.);
#170=EDGE_CURVE('',#225,#226,#264,.T.);
#171=EDGE_CURVE('',#225,#227,#265,.F.);
#172=EDGE_CURVE('',#227,#228,#266,.T.);
#173=EDGE_CURVE('',#228,#226,#267,.T.);
#174=EDGE_CURVE('',#229,#230,#268,.T.);
#175=EDGE_CURVE('',#229,#231,#269,.F.);
#176=EDGE_CURVE('',#231,#232,#270,.T.);
#177=EDGE_CURVE('',#232,#230,#271,.T.);
#178=EDGE_CURVE('',#232,#233,#272,.T.);
#179=EDGE_CURVE('',#233,#234,#273,.T.);
#180=EDGE_CURVE('',#230,#234,#274,.T.);
#181=EDGE_CURVE('',#235,#235,#29,.T.);
#182=EDGE_CURVE('',#236,#237,#30,.T.);
#183=EDGE_CURVE('',#238,#236,#275,.T.);
#184=EDGE_CURVE('',#239,#238,#31,.T.);
#185=EDGE_CURVE('',#237,#239,#276,.T.);
#186=EDGE_CURVE('',#240,#241,#277,.T.);
#187=EDGE_CURVE('',#241,#242,#32,.T.);
#188=EDGE_CURVE('',#242,#243,#278,.T.);
#189=EDGE_CURVE('',#243,#240,#33,.T.);
#190=EDGE_CURVE('',#221,#216,#34,.F.);
#191=EDGE_CURVE('',#215,#233,#35,.F.);
#192=EDGE_CURVE('',#231,#228,#36,.F.);
#193=EDGE_CURVE('',#227,#223,#37,.F.);
#194=EDGE_CURVE('',#244,#244,#38,.F.);
#195=EDGE_CURVE('',#245,#246,#279,.T.);
#196=EDGE_CURVE('',#247,#245,#39,.T.);
#197=EDGE_CURVE('',#248,#247,#280,.T.);
#198=EDGE_CURVE('',#246,#248,#40,.T.);
#199=EDGE_CURVE('',#249,#250,#41,.F.);
#200=EDGE_CURVE('',#250,#251,#281,.T.);
#201=EDGE_CURVE('',#251,#252,#42,.F.);
#202=EDGE_CURVE('',#252,#249,#282,.T.);
#203=EDGE_CURVE('',#217,#219,#43,.T.);
#204=EDGE_CURVE('',#224,#225,#44,.T.);
#205=EDGE_CURVE('',#226,#229,#45,.T.);
#206=EDGE_CURVE('',#234,#218,#46,.T.);
#207=EDGE_CURVE('',#250,#241,#283,.T.);
#208=EDGE_CURVE('',#251,#240,#284,.T.);
#209=EDGE_CURVE('',#249,#242,#285,.T.);
#210=EDGE_CURVE('',#252,#243,#286,.T.);
#211=EDGE_CURVE('',#246,#238,#287,.T.);
#212=EDGE_CURVE('',#245,#236,#288,.T.);
#213=EDGE_CURVE('',#247,#237,#289,.T.);
#214=EDGE_CURVE('',#248,#239,#290,.T.);
#215=VERTEX_POINT('',#591);
#216=VERTEX_POINT('',#592);
#217=VERTEX_POINT('',#594);
#218=VERTEX_POINT('',#596);
#219=VERTEX_POINT('',#600);
#220=VERTEX_POINT('',#601);
#221=VERTEX_POINT('',#603);
#222=VERTEX_POINT('',#605);
#223=VERTEX_POINT('',#609);
#224=VERTEX_POINT('',#611);
#225=VERTEX_POINT('',#615);
#226=VERTEX_POINT('',#616);
#227=VERTEX_POINT('',#618);
#228=VERTEX_POINT('',#620);
#229=VERTEX_POINT('',#624);
#230=VERTEX_POINT('',#625);
#231=VERTEX_POINT('',#627);
#232=VERTEX_POINT('',#629);
#233=VERTEX_POINT('',#633);
#234=VERTEX_POINT('',#635);
#235=VERTEX_POINT('',#639);
#236=VERTEX_POINT('',#641);
#237=VERTEX_POINT('',#642);
#238=VERTEX_POINT('',#644);
#239=VERTEX_POINT('',#646);
#240=VERTEX_POINT('',#649);
#241=VERTEX_POINT('',#650);
#242=VERTEX_POINT('',#652);
#243=VERTEX_POINT('',#654);
#244=VERTEX_POINT('',#662);
#245=VERTEX_POINT('',#664);
#246=VERTEX_POINT('',#665);
#247=VERTEX_POINT('',#667);
#248=VERTEX_POINT('',#669);
#249=VERTEX_POINT('',#672);
#250=VERTEX_POINT('',#673);
#251=VERTEX_POINT('',#675);
#252=VERTEX_POINT('',#677);
#253=LINE('',#590,#291);
#254=LINE('',#593,#292);
#255=LINE('',#595,#293);
#256=LINE('',#597,#294);
#257=LINE('',#599,#295);
#258=LINE('',#602,#296);
#259=LINE('',#604,#297);
#260=LINE('',#606,#298);
#261=LINE('',#608,#299);
#262=LINE('',#610,#300);
#263=LINE('',#612,#301);
#264=LINE('',#614,#302);
#265=LINE('',#617,#303);
#266=LINE('',#619,#304);
#267=LINE('',#621,#305);
#268=LINE('',#623,#306);
#269=LINE('',#626,#307);
#270=LINE('',#628,#308);
#271=LINE('',#630,#309);
#272=LINE('',#632,#310);
#273=LINE('',#634,#311);
#274=LINE('',#636,#312);
#275=LINE('',#643,#313);
#276=LINE('',#647,#314);
#277=LINE('',#648,#315);
#278=LINE('',#653,#316);
#279=LINE('',#663,#317);
#280=LINE('',#668,#318);
#281=LINE('',#674,#319);
#282=LINE('',#678,#320);
#283=LINE('',#684,#321);
#284=LINE('',#685,#322);
#285=LINE('',#687,#323);
#286=LINE('',#689,#324);
#287=LINE('',#692,#325);
#288=LINE('',#693,#326);
#289=LINE('',#695,#327);
#290=LINE('',#697,#328);
#291=VECTOR('',#474,1000.);
#292=VECTOR('',#475,1000.);
#293=VECTOR('',#476,1000.);
#294=VECTOR('',#477,1000.);
#295=VECTOR('',#480,1000.);
#296=VECTOR('',#481,1000.);
#297=VECTOR('',#482,1000.);
#298=VECTOR('',#483,1000.);
#299=VECTOR('',#486,1000.);
#300=VECTOR('',#487,1000.);
#301=VECTOR('',#488,1000.);
#302=VECTOR('',#491,1000.);
#303=VECTOR('',#492,1000.);
#304=VECTOR('',#493,1000.);
#305=VECTOR('',#494,1000.);
#306=VECTOR('',#497,1000.);
#307=VECTOR('',#498,1000.);
#308=VECTOR('',#499,1000.);
#309=VECTOR('',#500,1000.);
#310=VECTOR('',#503,1000.);
#311=VECTOR('',#504,1000.);
#312=VECTOR('',#505,1000.);
#313=VECTOR('',#512,1000.);
#314=VECTOR('',#515,1000.);
#315=VECTOR('',#516,1000.);
#316=VECTOR('',#519,1000.);
#317=VECTOR('',#534,1000.);
#318=VECTOR('',#537,1000.);
#319=VECTOR('',#542,1000.);
#320=VECTOR('',#545,1000.);
#321=VECTOR('',#556,1000.);
#322=VECTOR('',#557,1000.);
#323=VECTOR('',#560,1000.);
#324=VECTOR('',#563,1000.);
#325=VECTOR('',#568,1000.);
#326=VECTOR('',#569,1000.);
#327=VECTOR('',#572,1000.);
#328=VECTOR('',#575,1000.);
#329=EDGE_LOOP('',(#47,#48,#49,#50));
#330=EDGE_LOOP('',(#51,#52,#53,#54));
#331=EDGE_LOOP('',(#55,#56,#57,#58));
#332=EDGE_LOOP('',(#59,#60,#61,#62));
#333=EDGE_LOOP('',(#63,#64,#65,#66));
#334=EDGE_LOOP('',(#67,#68,#69,#70));
#335=EDGE_LOOP('',(#71));
#336=EDGE_LOOP('',(#72,#73,#74,#75));
#337=EDGE_LOOP('',(#76,#77,#78,#79));
#338=EDGE_LOOP('',(#80,#81,#82,#83,#84,#85,#86,#87,#88,#89));
#339=EDGE_LOOP('',(#90));
#340=EDGE_LOOP('',(#91,#92,#93,#94));
#341=EDGE_LOOP('',(#95,#96,#97,#98));
#342=EDGE_LOOP('',(#99,#100,#101,#102,#103,#104,#105,#106,#107,#108));
#343=EDGE_LOOP('',(#109,#110,#111,#112));
#344=EDGE_LOOP('',(#113,#114,#115,#116));
#345=EDGE_LOOP('',(#117,#118,#119,#120));
#346=EDGE_LOOP('',(#121,#122,#123,#124));
#347=EDGE_LOOP('',(#125,#126,#127,#128));
#348=EDGE_LOOP('',(#129,#130,#131,#132));
#349=EDGE_LOOP('',(#133,#134,#135,#136));
#350=EDGE_LOOP('',(#137,#138,#139,#140));
#351=EDGE_LOOP('',(#141));
#352=EDGE_LOOP('',(#142));
#353=EDGE_LOOP('',(#143,#144,#145,#146));
#354=EDGE_LOOP('',(#147,#148,#149,#150));
#355=EDGE_LOOP('',(#151,#152,#153,#154));
#356=EDGE_LOOP('',(#155,#156,#157,#158));
#357=FACE_BOUND('',#329,.T.);
#358=FACE_BOUND('',#330,.T.);
#359=FACE_BOUND('',#331,.T.);
#360=FACE_BOUND('',#332,.T.);
#361=FACE_BOUND('',#333,.T.);
#362=FACE_BOUND('',#334,.T.);
#363=FACE_BOUND('',#335,.T.);
#364=FACE_BOUND('',#336,.T.);
#365=FACE_BOUND('',#337,.T.);
#366=FACE_BOUND('',#338,.T.);
#367=FACE_BOUND('',#339,.T.);
#368=FACE_BOUND('',#340,.T.);
#369=FACE_BOUND('',#341,.T.);
#370=FACE_BOUND('',#342,.T.);
#371=FACE_BOUND('',#343,.T.);
#372=FACE_BOUND('',#344,.T.);
#373=FACE_BOUND('',#345,.T.);
#374=FACE_BOUND('',#346,.T.);
#375=FACE_BOUND('',#347,.T.);
#376=FACE_BOUND('',#348,.T.);
#377=FACE_BOUND('',#349,.T.);
#378=FACE_BOUND('',#350,.T.);
#379=FACE_BOUND('',#351,.T.);
#380=FACE_BOUND('',#352,.T.);
#381=FACE_BOUND('',#353,.T.);
#382=FACE_BOUND('',#354,.T.);
#383=FACE_BOUND('',#355,.T.);
#384=FACE_BOUND('',#356,.T.);
#385=PLANE('',#431);
#386=PLANE('',#432);
#387=PLANE('',#433);
#388=PLANE('',#434);
#389=PLANE('',#435);
#390=PLANE('',#436);
#391=PLANE('',#437);
#392=PLANE('',#447);
#393=PLANE('',#457);
#394=PLANE('',#459);
#395=PLANE('',#461);
#396=PLANE('',#463);
#397=ADVANCED_FACE('',(#357),#385,.T.);
#398=ADVANCED_FACE('',(#358),#386,.T.);
#399=ADVANCED_FACE('',(#359),#387,.T.);
#400=ADVANCED_FACE('',(#360),#388,.T.);
#401=ADVANCED_FACE('',(#361),#389,.T.);
#402=ADVANCED_FACE('',(#362),#390,.T.);
#403=ADVANCED_FACE('',(#363,#364,#365,#366),#391,.F.);
#404=ADVANCED_FACE('',(#367,#368,#369,#370),#392,.T.);
#405=ADVANCED_FACE('',(#371),#393,.T.);
#406=ADVANCED_FACE('',(#372),#20,.F.);
#407=ADVANCED_FACE('',(#373),#394,.T.);
#408=ADVANCED_FACE('',(#374),#21,.F.);
#409=ADVANCED_FACE('',(#375),#395,.F.);
#410=ADVANCED_FACE('',(#376),#22,.F.);
#411=ADVANCED_FACE('',(#377),#396,.F.);
#412=ADVANCED_FACE('',(#378),#23,.F.);
#413=ADVANCED_FACE('',(#379,#380),#24,.F.);
#414=ADVANCED_FACE('',(#381),#25,.T.);
#415=ADVANCED_FACE('',(#382),#26,.T.);
#416=ADVANCED_FACE('',(#383),#27,.T.);
#417=ADVANCED_FACE('',(#384),#28,.T.);
#418=CLOSED_SHELL('',(#397,#398,#399,#400,#401,#402,#403,#404,#405,#406,
#407,#408,#409,#410,#411,#412,#413,#414,#415,#416,#417));
#419=STYLED_ITEM('',(#420),#427);
#420=PRESENTATION_STYLE_ASSIGNMENT((#421));
#421=SURFACE_STYLE_USAGE(.BOTH.,#422);
#422=SURFACE_SIDE_STYLE('',(#423));
#423=SURFACE_STYLE_FILL_AREA(#424);
#424=FILL_AREA_STYLE('',(#425));
#425=FILL_AREA_STYLE_COLOUR('',#426);
#426=COLOUR_RGB('',0.699999988079071,0.699999988079071,0.699999988079071);
#427=MANIFOLD_SOLID_BREP('',#418);
#428=SHAPE_DEFINITION_REPRESENTATION(#710,#429);
#429=SHAPE_REPRESENTATION('À2.040 Êðîíøòåéí ÊÏ-Ì12-Ñ',(#430),#705);
#430=AXIS2_PLACEMENT_3D('',#588,#470,#471);
#431=AXIS2_PLACEMENT_3D('',#589,#472,#473);
#432=AXIS2_PLACEMENT_3D('',#598,#478,#479);
#433=AXIS2_PLACEMENT_3D('',#607,#484,#485);
#434=AXIS2_PLACEMENT_3D('',#613,#489,#490);
#435=AXIS2_PLACEMENT_3D('',#622,#495,#496);
#436=AXIS2_PLACEMENT_3D('',#631,#501,#502);
#437=AXIS2_PLACEMENT_3D('',#637,#506,#507);
#438=AXIS2_PLACEMENT_3D('',#638,#508,#509);
#439=AXIS2_PLACEMENT_3D('',#640,#510,#511);
#440=AXIS2_PLACEMENT_3D('',#645,#513,#514);
#441=AXIS2_PLACEMENT_3D('',#651,#517,#518);
#442=AXIS2_PLACEMENT_3D('',#655,#520,#521);
#443=AXIS2_PLACEMENT_3D('',#656,#522,#523);
#444=AXIS2_PLACEMENT_3D('',#657,#524,#525);
#445=AXIS2_PLACEMENT_3D('',#658,#526,#527);
#446=AXIS2_PLACEMENT_3D('',#659,#528,#529);
#447=AXIS2_PLACEMENT_3D('',#660,#530,#531);
#448=AXIS2_PLACEMENT_3D('',#661,#532,#533);
#449=AXIS2_PLACEMENT_3D('',#666,#535,#536);
#450=AXIS2_PLACEMENT_3D('',#670,#538,#539);
#451=AXIS2_PLACEMENT_3D('',#671,#540,#541);
#452=AXIS2_PLACEMENT_3D('',#676,#543,#544);
#453=AXIS2_PLACEMENT_3D('',#679,#546,#547);
#454=AXIS2_PLACEMENT_3D('',#680,#548,#549);
#455=AXIS2_PLACEMENT_3D('',#681,#550,#551);
#456=AXIS2_PLACEMENT_3D('',#682,#552,#553);
#457=AXIS2_PLACEMENT_3D('',#683,#554,#555);
#458=AXIS2_PLACEMENT_3D('',#686,#558,#559);
#459=AXIS2_PLACEMENT_3D('',#688,#561,#562);
#460=AXIS2_PLACEMENT_3D('',#690,#564,#565);
#461=AXIS2_PLACEMENT_3D('',#691,#566,#567);
#462=AXIS2_PLACEMENT_3D('',#694,#570,#571);
#463=AXIS2_PLACEMENT_3D('',#696,#573,#574);
#464=AXIS2_PLACEMENT_3D('',#698,#576,#577);
#465=AXIS2_PLACEMENT_3D('',#699,#578,#579);
#466=AXIS2_PLACEMENT_3D('',#700,#580,#581);
#467=AXIS2_PLACEMENT_3D('',#701,#582,#583);
#468=AXIS2_PLACEMENT_3D('',#702,#584,#585);
#469=AXIS2_PLACEMENT_3D('',#703,#586,#587);
#470=DIRECTION('',(0.,0.,1.));
#471=DIRECTION('',(1.,0.,0.));
#472=DIRECTION('',(0.,0.,1.));
#473=DIRECTION('',(1.,0.,0.));
#474=DIRECTION('',(-1.,0.,0.));
#475=DIRECTION('',(0.,-1.,0.));
#476=DIRECTION('',(-1.,0.,0.));
#477=DIRECTION('',(0.,-1.,0.));
#478=DIRECTION('',(-0.984807753012208,0.,0.17364817766693));
#479=DIRECTION('',(0.17364817766693,0.,0.984807753012208));
#480=DIRECTION('',(-0.17364817766693,0.,-0.984807753012208));
#481=DIRECTION('',(0.,-1.,0.));
#482=DIRECTION('',(-0.17364817766693,0.,-0.984807753012208));
#483=DIRECTION('',(0.,-1.,0.));
#484=DIRECTION('',(-1.,0.,2.66880534765663E-16));
#485=DIRECTION('',(2.66880534765663E-16,0.,1.));
#486=DIRECTION('',(-2.66880534765663E-16,0.,-1.));
#487=DIRECTION('',(0.,-1.,0.));
#488=DIRECTION('',(-2.66880534765663E-16,0.,-1.));
#489=DIRECTION('',(-3.25260651745651E-16,0.,-1.));
#490=DIRECTION('',(-1.,0.,3.25260651745651E-16));
#491=DIRECTION('',(1.,0.,-3.25260651745651E-16));
#492=DIRECTION('',(0.,-1.,0.));
#493=DIRECTION('',(1.,0.,-3.25260651745651E-16));
#494=DIRECTION('',(0.,-1.,0.));
#495=DIRECTION('',(1.,0.,5.33761069531325E-16));
#496=DIRECTION('',(5.33761069531325E-16,0.,-1.));
#497=DIRECTION('',(-5.33761069531325E-16,0.,1.));
#498=DIRECTION('',(0.,-1.,0.));
#499=DIRECTION('',(-5.33761069531325E-16,0.,1.));
#500=DIRECTION('',(0.,-1.,0.));
#501=DIRECTION('',(0.984807753012208,0.,0.17364817766693));
#502=DIRECTION('',(0.17364817766693,0.,-0.984807753012208));
#503=DIRECTION('',(-0.17364817766693,0.,0.984807753012208));
#504=DIRECTION('',(0.,-1.,0.));
#505=DIRECTION('',(-0.17364817766693,0.,0.984807753012208));
#506=DIRECTION('',(0.,-1.,0.));
#507=DIRECTION('',(0.,0.,-1.));
#508=DIRECTION('',(0.,-1.,0.));
#509=DIRECTION('',(-1.,0.,3.25260651745651E-16));
#510=DIRECTION('',(0.,1.,0.));
#511=DIRECTION('',(1.,0.,-3.25260651745651E-16));
#512=DIRECTION('',(6.02334540269726E-17,0.,-1.));
#513=DIRECTION('',(0.,1.,0.));
#514=DIRECTION('',(-1.,0.,3.25260651745651E-16));
#515=DIRECTION('',(-7.34848139129064E-16,0.,1.));
#516=DIRECTION('',(9.03501810404587E-16,0.,1.));
#517=DIRECTION('',(0.,-1.,0.));
#518=DIRECTION('',(1.,0.,-3.25260651745651E-16));
#519=DIRECTION('',(-3.25260651745651E-16,0.,-1.));
#520=DIRECTION('',(0.,-1.,0.));
#521=DIRECTION('',(-1.,0.,3.25260651745651E-16));
#522=DIRECTION('',(0.,-1.,0.));
#523=DIRECTION('',(0.,0.,-1.));
#524=DIRECTION('',(0.,-1.,0.));
#525=DIRECTION('',(0.,0.,-1.));
#526=DIRECTION('',(0.,-1.,0.));
#527=DIRECTION('',(0.,0.,-1.));
#528=DIRECTION('',(0.,-1.,0.));
#529=DIRECTION('',(0.,0.,-1.));
#530=DIRECTION('',(0.,-1.,0.));
#531=DIRECTION('',(0.,0.,-1.));
#532=DIRECTION('',(0.,-1.,0.));
#533=DIRECTION('',(0.,0.,-1.));
#534=DIRECTION('',(-6.02334540269726E-17,0.,1.));
#535=DIRECTION('',(0.,-1.,0.));
#536=DIRECTION('',(0.,0.,-1.));
#537=DIRECTION('',(7.34848139129065E-16,0.,-1.));
#538=DIRECTION('',(0.,-1.,0.));
#539=DIRECTION('',(0.,0.,-1.));
#540=DIRECTION('',(0.,-1.,0.));
#541=DIRECTION('',(0.,0.,-1.));
#542=DIRECTION('',(-9.03501810404587E-16,0.,-1.));
#543=DIRECTION('',(0.,-1.,0.));
#544=DIRECTION('',(0.,0.,-1.));
#545=DIRECTION('',(3.25260651745651E-16,0.,1.));
#546=DIRECTION('',(0.,-1.,0.));
#547=DIRECTION('',(0.,0.,-1.));
#548=DIRECTION('',(0.,-1.,0.));
#549=DIRECTION('',(0.,0.,-1.));
#550=DIRECTION('',(0.,-1.,0.));
#551=DIRECTION('',(0.,0.,-1.));
#552=DIRECTION('',(0.,-1.,0.));
#553=DIRECTION('',(0.,0.,-1.));
#554=DIRECTION('',(-1.,0.,9.03501810404587E-16));
#555=DIRECTION('',(9.03501810404587E-16,0.,1.));
#556=DIRECTION('',(0.,1.,0.));
#557=DIRECTION('',(0.,1.,0.));
#558=DIRECTION('',(0.,1.,0.));
#559=DIRECTION('',(0.,0.,1.));
#560=DIRECTION('',(0.,1.,0.));
#561=DIRECTION('',(1.,0.,-3.25260651745651E-16));
#562=DIRECTION('',(-3.25260651745651E-16,0.,-1.));
#563=DIRECTION('',(0.,1.,0.));
#564=DIRECTION('',(0.,1.,0.));
#565=DIRECTION('',(0.,0.,1.));
#566=DIRECTION('',(1.,0.,6.02334540269726E-17));
#567=DIRECTION('',(6.02334540269726E-17,0.,-1.));
#568=DIRECTION('',(0.,1.,0.));
#569=DIRECTION('',(0.,1.,0.));
#570=DIRECTION('',(0.,1.,0.));
#571=DIRECTION('',(0.,0.,1.));
#572=DIRECTION('',(0.,1.,0.));
#573=DIRECTION('',(-1.,0.,-7.34848139129064E-16));
#574=DIRECTION('',(-7.34848139129065E-16,0.,1.));
#575=DIRECTION('',(0.,1.,0.));
#576=DIRECTION('',(0.,1.,0.));
#577=DIRECTION('',(0.,0.,1.));
#578=DIRECTION('',(0.,1.,0.));
#579=DIRECTION('',(0.,0.,1.));
#580=DIRECTION('',(0.,-1.,0.));
#581=DIRECTION('',(0.,0.,-1.));
#582=DIRECTION('',(0.,-1.,0.));
#583=DIRECTION('',(0.,0.,-1.));
#584=DIRECTION('',(0.,-1.,0.));
#585=DIRECTION('',(0.,0.,-1.));
#586=DIRECTION('',(0.,-1.,0.));
#587=DIRECTION('',(0.,0.,-1.));
#588=CARTESIAN_POINT('',(0.,0.,0.));
#589=CARTESIAN_POINT('',(-11.5918254822884,2.,28.));
#590=CARTESIAN_POINT('',(-11.5918254822884,2.,28.));
#591=CARTESIAN_POINT('',(6.20457373380777,2.,28.));
#592=CARTESIAN_POINT('',(-6.20457373380777,2.,28.));
#593=CARTESIAN_POINT('',(-6.20457373380777,2.,28.));
#594=CARTESIAN_POINT('',(-6.20457373380777,0.,28.));
#595=CARTESIAN_POINT('',(-11.5918254822884,0.,28.));
#596=CARTESIAN_POINT('',(6.20457373380777,0.,28.));
#597=CARTESIAN_POINT('',(6.20457373380777,2.,28.));
#598=CARTESIAN_POINT('',(-11.5918254822884,2.,26.));
#599=CARTESIAN_POINT('',(-11.5918254822884,0.,26.));
#600=CARTESIAN_POINT('',(-12.113420251881,0.,23.0418890660016));
#601=CARTESIAN_POINT('',(-16.,0.,1.));
#602=CARTESIAN_POINT('',(-12.113420251881,2.,23.0418890660016));
#603=CARTESIAN_POINT('',(-12.113420251881,2.,23.0418890660016));
#604=CARTESIAN_POINT('',(-11.5918254822884,2.,26.));
#605=CARTESIAN_POINT('',(-16.,2.,1.));
#606=CARTESIAN_POINT('',(-16.,2.,1.));
#607=CARTESIAN_POINT('',(-16.,2.,-25.));
#608=CARTESIAN_POINT('',(-16.,2.,-25.));
#609=CARTESIAN_POINT('',(-16.,2.,-19.));
#610=CARTESIAN_POINT('',(-16.,2.,-19.));
#611=CARTESIAN_POINT('',(-16.,0.,-19.));
#612=CARTESIAN_POINT('',(-16.,0.,-25.));
#613=CARTESIAN_POINT('',(16.,2.,-25.));
#614=CARTESIAN_POINT('',(16.,0.,-25.));
#615=CARTESIAN_POINT('',(-10.,0.,-25.));
#616=CARTESIAN_POINT('',(10.,0.,-25.));
#617=CARTESIAN_POINT('',(-10.,2.,-25.));
#618=CARTESIAN_POINT('',(-10.,2.,-25.));
#619=CARTESIAN_POINT('',(16.,2.,-25.));
#620=CARTESIAN_POINT('',(10.,2.,-25.));
#621=CARTESIAN_POINT('',(10.,2.,-25.));
#622=CARTESIAN_POINT('',(16.,2.,1.00000000000001));
#623=CARTESIAN_POINT('',(16.,0.,1.00000000000001));
#624=CARTESIAN_POINT('',(16.,0.,-19.));
#625=CARTESIAN_POINT('',(16.,0.,1.00000000000001));
#626=CARTESIAN_POINT('',(16.,2.,-19.));
#627=CARTESIAN_POINT('',(16.,2.,-19.));
#628=CARTESIAN_POINT('',(16.,2.,1.00000000000001));
#629=CARTESIAN_POINT('',(16.,2.,1.00000000000001));
#630=CARTESIAN_POINT('',(16.,2.,1.00000000000001));
#631=CARTESIAN_POINT('',(11.5918254822884,2.,26.));
#632=CARTESIAN_POINT('',(11.5918254822884,2.,26.));
#633=CARTESIAN_POINT('',(12.113420251881,2.,23.0418890660016));
#634=CARTESIAN_POINT('',(12.113420251881,2.,23.0418890660016));
#635=CARTESIAN_POINT('',(12.113420251881,0.,23.0418890660016));
#636=CARTESIAN_POINT('',(11.5918254822884,0.,26.));
#637=CARTESIAN_POINT('',(0.,2.,0.));
#638=CARTESIAN_POINT('',(6.57038085895132E-15,2.,17.));
#639=CARTESIAN_POINT('',(-6.04999999999999,2.,17.));
#640=CARTESIAN_POINT('',(-11.,2.,-19.));
#641=CARTESIAN_POINT('',(-8.40000000000001,2.,-19.));
#642=CARTESIAN_POINT('',(-13.6,2.,-19.));
#643=CARTESIAN_POINT('',(-8.40000000000001,2.,-0.999999999999998));
#644=CARTESIAN_POINT('',(-8.40000000000001,2.,-0.999999999999998));
#645=CARTESIAN_POINT('',(-11.,2.,-0.999999999999997));
#646=CARTESIAN_POINT('',(-13.6,2.,-1.));
#647=CARTESIAN_POINT('',(-13.6,2.,-19.));
#648=CARTESIAN_POINT('',(13.6,2.,-19.));
#649=CARTESIAN_POINT('',(13.6,2.,-19.));
#650=CARTESIAN_POINT('',(13.6,2.,-0.999999999999998));
#651=CARTESIAN_POINT('',(11.,2.,-0.999999999999998));
#652=CARTESIAN_POINT('',(8.40000000000001,2.,-0.999999999999997));
#653=CARTESIAN_POINT('',(8.40000000000001,2.,-0.999999999999997));
#654=CARTESIAN_POINT('',(8.40000000000001,2.,-19.));
#655=CARTESIAN_POINT('',(11.,2.,-19.));
#656=CARTESIAN_POINT('',(-6.20457373380777,2.,22.));
#657=CARTESIAN_POINT('',(6.20457373380777,2.,22.));
#658=CARTESIAN_POINT('',(10.,2.,-19.));
#659=CARTESIAN_POINT('',(-10.,2.,-19.));
#660=CARTESIAN_POINT('',(0.,0.,0.));
#661=CARTESIAN_POINT('',(6.57038085895132E-15,0.,17.));
#662=CARTESIAN_POINT('',(6.57038085895132E-15,0.,10.95));
#663=CARTESIAN_POINT('',(-8.40000000000001,0.,-5.0596101382657E-16));
#664=CARTESIAN_POINT('',(-8.40000000000001,-3.46944695195361E-15,-19.));
#665=CARTESIAN_POINT('',(-8.40000000000001,0.,-0.999999999999998));
#666=CARTESIAN_POINT('',(-11.,0.,-19.));
#667=CARTESIAN_POINT('',(-13.6,-3.46944695195361E-15,-19.));
#668=CARTESIAN_POINT('',(-13.6,0.,-9.99393469215529E-15));
#669=CARTESIAN_POINT('',(-13.6,-3.46944695195361E-15,-1.));
#670=CARTESIAN_POINT('',(-11.,0.,-0.999999999999997));
#671=CARTESIAN_POINT('',(11.,0.,-0.999999999999998));
#672=CARTESIAN_POINT('',(8.40000000000001,-3.46944695195361E-15,-0.999999999999997));
#673=CARTESIAN_POINT('',(13.6,-3.46944695195361E-15,-0.999999999999998));
#674=CARTESIAN_POINT('',(13.6,0.,-1.22876246215024E-14));
#675=CARTESIAN_POINT('',(13.6,-3.46944695195361E-15,-19.));
#676=CARTESIAN_POINT('',(11.,0.,-19.));
#677=CARTESIAN_POINT('',(8.4,0.,-19.));
#678=CARTESIAN_POINT('',(8.40000000000001,0.,-2.73218947466347E-15));
#679=CARTESIAN_POINT('',(-6.20457373380777,0.,22.));
#680=CARTESIAN_POINT('',(-10.,0.,-19.));
#681=CARTESIAN_POINT('',(10.,0.,-19.));
#682=CARTESIAN_POINT('',(6.20457373380777,0.,22.));
#683=CARTESIAN_POINT('',(13.6,-12.920006927406,-19.));
#684=CARTESIAN_POINT('',(13.6,-12.920006927406,-0.999999999999998));
#685=CARTESIAN_POINT('',(13.6,-12.920006927406,-19.));
#686=CARTESIAN_POINT('',(11.,-12.920006927406,-0.999999999999998));
#687=CARTESIAN_POINT('',(8.40000000000001,-12.920006927406,-0.999999999999997));
#688=CARTESIAN_POINT('',(8.40000000000001,-12.920006927406,-0.999999999999997));
#689=CARTESIAN_POINT('',(8.40000000000001,-12.920006927406,-19.));
#690=CARTESIAN_POINT('',(11.,-12.920006927406,-19.));
#691=CARTESIAN_POINT('',(-8.40000000000001,-12.920006927406,-0.999999999999998));
#692=CARTESIAN_POINT('',(-8.40000000000001,-12.920006927406,-0.999999999999998));
#693=CARTESIAN_POINT('',(-8.40000000000001,-12.920006927406,-19.));
#694=CARTESIAN_POINT('',(-11.,-12.920006927406,-19.));
#695=CARTESIAN_POINT('',(-13.6,-12.920006927406,-19.));
#696=CARTESIAN_POINT('',(-13.6,-12.920006927406,-19.));
#697=CARTESIAN_POINT('',(-13.6,-12.920006927406,-1.));
#698=CARTESIAN_POINT('',(-11.,-12.920006927406,-0.999999999999997));
#699=CARTESIAN_POINT('',(6.57038085895132E-15,-17.602240412399,17.));
#700=CARTESIAN_POINT('',(10.,2.,-19.));
#701=CARTESIAN_POINT('',(-10.,2.,-19.));
#702=CARTESIAN_POINT('',(6.20457373380777,2.,22.));
#703=CARTESIAN_POINT('',(-6.20457373380777,2.,22.));
#704=MECHANICAL_DESIGN_GEOMETRIC_PRESENTATION_REPRESENTATION('',(#419),
#705);
#705=(
GEOMETRIC_REPRESENTATION_CONTEXT(3)
GLOBAL_UNCERTAINTY_ASSIGNED_CONTEXT((#706))
GLOBAL_UNIT_ASSIGNED_CONTEXT((#709,#708,#707))
REPRESENTATION_CONTEXT('À2.040 Êðîíøòåéí ÊÏ-Ì12-Ñ',
'TOP_LEVEL_ASSEMBLY_PART')
);
#706=UNCERTAINTY_MEASURE_WITH_UNIT(LENGTH_MEASURE(0.005),#709,
'DISTANCE_ACCURACY_VALUE','Maximum Tolerance applied to model');
#707=(
NAMED_UNIT(*)
SI_UNIT($,.STERADIAN.)
SOLID_ANGLE_UNIT()
);
#708=(
NAMED_UNIT(*)
PLANE_ANGLE_UNIT()
SI_UNIT($,.RADIAN.)
);
#709=(
LENGTH_UNIT()
NAMED_UNIT(*)
SI_UNIT(.MILLI.,.METRE.)
);
#710=PRODUCT_DEFINITION_SHAPE('','',#711);
#711=PRODUCT_DEFINITION('','',#713,#712);
#712=PRODUCT_DEFINITION_CONTEXT('',#719,'design');
#713=PRODUCT_DEFINITION_FORMATION_WITH_SPECIFIED_SOURCE('','',#715,
 .NOT_KNOWN.);
#714=PRODUCT_RELATED_PRODUCT_CATEGORY('','',(#715));
#715=PRODUCT('À2.040 Êðîíøòåéí ÊÏ-Ì12-Ñ','À2.040 Êðîíøòåéí ÊÏ-Ì12-Ñ',
'À2.040 Êðîíøòåéí ÊÏ-Ì12-Ñ',(#717));
#716=PRODUCT_CATEGORY('','');
#717=PRODUCT_CONTEXT('',#719,'mechanical');
#718=APPLICATION_PROTOCOL_DEFINITION('international standard',
'automotive_design',2010,#719);
#719=APPLICATION_CONTEXT(
'core data for automotive mechanical design processes');
ENDSEC;
END-ISO-10303-21;
