ISO-10303-21;
HEADER;
/* Generated by software containing ST-Developer
 * from STEP Tools, Inc. (www.steptools.com) 
 */
/* OPTION: strings as raw bytes, not using required /X/ escapes */

FILE_DESCRIPTION(
/* description */ ('Unknown'),
/* implementation_level */ '2;1');

FILE_NAME(
/* name */ '_PV-KP-M30-S',
/* time_stamp */ '2021-01-18T18:16:32+05:00',
/* author */ ('Unknown'),
/* organization */ ('Unknown'),
/* preprocessor_version */ 'ST-DEVELOPER v16.7',
/* originating_system */ 'Solid Edge',
/* authorisation */ 'Unknown');

FILE_SCHEMA (('AUTOMOTIVE_DESIGN {1 0 10303 214 3 1 1}'));
ENDSEC;

DATA;
#10=PROPERTY_DEFINITION_REPRESENTATION(#14,#12);
#11=PROPERTY_DEFINITION_REPRESENTATION(#15,#13);
#12=REPRESENTATION('',(#16),#705);
#13=REPRESENTATION('',(#17),#705);
#14=PROPERTY_DEFINITION('pmi validation property','',#710);
#15=PROPERTY_DEFINITION('pmi validation property','',#710);
#16=VALUE_REPRESENTATION_ITEM('number of annotations',COUNT_MEASURE(0.));
#17=VALUE_REPRESENTATION_ITEM('number of views',COUNT_MEASURE(0.));
#18=SHAPE_REPRESENTATION_RELATIONSHIP('','',#429,#19);
#19=ADVANCED_BREP_SHAPE_REPRESENTATION('',(#427),#705);
#20=CYLINDRICAL_SURFACE('',#455,3.19999999999999);
#21=CYLINDRICAL_SURFACE('',#457,3.2);
#22=CYLINDRICAL_SURFACE('',#460,3.19999999999999);
#23=CYLINDRICAL_SURFACE('',#462,3.2);
#24=CYLINDRICAL_SURFACE('',#463,15.05);
#25=CYLINDRICAL_SURFACE('',#466,6.);
#26=CYLINDRICAL_SURFACE('',#467,6.);
#27=CYLINDRICAL_SURFACE('',#468,6.);
#28=CYLINDRICAL_SURFACE('',#469,6.);
#29=LINE('',#595,#67);
#30=LINE('',#599,#68);
#31=LINE('',#600,#69);
#32=LINE('',#605,#70);
#33=LINE('',#607,#71);
#34=LINE('',#611,#72);
#35=LINE('',#615,#73);
#36=LINE('',#617,#74);
#37=LINE('',#623,#75);
#38=LINE('',#627,#76);
#39=LINE('',#629,#77);
#40=LINE('',#634,#78);
#41=LINE('',#638,#79);
#42=LINE('',#640,#80);
#43=LINE('',#644,#81);
#44=LINE('',#648,#82);
#45=LINE('',#651,#83);
#46=LINE('',#656,#84);
#47=LINE('',#659,#85);
#48=LINE('',#664,#86);
#49=LINE('',#668,#87);
#50=LINE('',#669,#88);
#51=LINE('',#671,#89);
#52=LINE('',#672,#90);
#53=LINE('',#674,#91);
#54=LINE('',#675,#92);
#55=LINE('',#677,#93);
#56=LINE('',#678,#94);
#57=LINE('',#680,#95);
#58=LINE('',#681,#96);
#59=LINE('',#683,#97);
#60=LINE('',#685,#98);
#61=LINE('',#688,#99);
#62=LINE('',#689,#100);
#63=LINE('',#691,#101);
#64=LINE('',#693,#102);
#65=LINE('',#697,#103);
#66=LINE('',#699,#104);
#67=VECTOR('',#478,1000.);
#68=VECTOR('',#481,1000.);
#69=VECTOR('',#482,1000.);
#70=VECTOR('',#485,1000.);
#71=VECTOR('',#486,1000.);
#72=VECTOR('',#489,1000.);
#73=VECTOR('',#492,1000.);
#74=VECTOR('',#493,1000.);
#75=VECTOR('',#498,1000.);
#76=VECTOR('',#501,1000.);
#77=VECTOR('',#504,1000.);
#78=VECTOR('',#507,1000.);
#79=VECTOR('',#510,1000.);
#80=VECTOR('',#511,1000.);
#81=VECTOR('',#514,1000.);
#82=VECTOR('',#517,1000.);
#83=VECTOR('',#520,1000.);
#84=VECTOR('',#523,1000.);
#85=VECTOR('',#526,1000.);
#86=VECTOR('',#529,1000.);
#87=VECTOR('',#534,1000.);
#88=VECTOR('',#535,1000.);
#89=VECTOR('',#538,1000.);
#90=VECTOR('',#539,1000.);
#91=VECTOR('',#542,1000.);
#92=VECTOR('',#543,1000.);
#93=VECTOR('',#546,1000.);
#94=VECTOR('',#547,1000.);
#95=VECTOR('',#550,1000.);
#96=VECTOR('',#551,1000.);
#97=VECTOR('',#554,1000.);
#98=VECTOR('',#557,1000.);
#99=VECTOR('',#562,1000.);
#100=VECTOR('',#563,1000.);
#101=VECTOR('',#566,1000.);
#102=VECTOR('',#569,1000.);
#103=VECTOR('',#576,1000.);
#104=VECTOR('',#579,1000.);
#105=ORIENTED_EDGE('',*,*,#217,.T.);
#106=ORIENTED_EDGE('',*,*,#218,.F.);
#107=ORIENTED_EDGE('',*,*,#219,.F.);
#108=ORIENTED_EDGE('',*,*,#220,.F.);
#109=ORIENTED_EDGE('',*,*,#221,.F.);
#110=ORIENTED_EDGE('',*,*,#222,.F.);
#111=ORIENTED_EDGE('',*,*,#223,.T.);
#112=ORIENTED_EDGE('',*,*,#224,.F.);
#113=ORIENTED_EDGE('',*,*,#225,.F.);
#114=ORIENTED_EDGE('',*,*,#226,.T.);
#115=ORIENTED_EDGE('',*,*,#227,.F.);
#116=ORIENTED_EDGE('',*,*,#228,.T.);
#117=ORIENTED_EDGE('',*,*,#229,.T.);
#118=ORIENTED_EDGE('',*,*,#230,.F.);
#119=ORIENTED_EDGE('',*,*,#231,.T.);
#120=ORIENTED_EDGE('',*,*,#232,.T.);
#121=ORIENTED_EDGE('',*,*,#233,.T.);
#122=ORIENTED_EDGE('',*,*,#234,.T.);
#123=ORIENTED_EDGE('',*,*,#235,.T.);
#124=ORIENTED_EDGE('',*,*,#236,.T.);
#125=ORIENTED_EDGE('',*,*,#237,.T.);
#126=ORIENTED_EDGE('',*,*,#238,.T.);
#127=ORIENTED_EDGE('',*,*,#239,.T.);
#128=ORIENTED_EDGE('',*,*,#240,.T.);
#129=ORIENTED_EDGE('',*,*,#241,.F.);
#130=ORIENTED_EDGE('',*,*,#242,.T.);
#131=ORIENTED_EDGE('',*,*,#243,.T.);
#132=ORIENTED_EDGE('',*,*,#244,.T.);
#133=ORIENTED_EDGE('',*,*,#245,.T.);
#134=ORIENTED_EDGE('',*,*,#246,.T.);
#135=ORIENTED_EDGE('',*,*,#247,.F.);
#136=ORIENTED_EDGE('',*,*,#248,.F.);
#137=ORIENTED_EDGE('',*,*,#249,.F.);
#138=ORIENTED_EDGE('',*,*,#250,.F.);
#139=ORIENTED_EDGE('',*,*,#251,.T.);
#140=ORIENTED_EDGE('',*,*,#252,.T.);
#141=ORIENTED_EDGE('',*,*,#253,.T.);
#142=ORIENTED_EDGE('',*,*,#254,.T.);
#143=ORIENTED_EDGE('',*,*,#224,.T.);
#144=ORIENTED_EDGE('',*,*,#255,.T.);
#145=ORIENTED_EDGE('',*,*,#236,.F.);
#146=ORIENTED_EDGE('',*,*,#256,.F.);
#147=ORIENTED_EDGE('',*,*,#238,.F.);
#148=ORIENTED_EDGE('',*,*,#257,.T.);
#149=ORIENTED_EDGE('',*,*,#222,.T.);
#150=ORIENTED_EDGE('',*,*,#258,.T.);
#151=ORIENTED_EDGE('',*,*,#240,.F.);
#152=ORIENTED_EDGE('',*,*,#259,.T.);
#153=ORIENTED_EDGE('',*,*,#230,.T.);
#154=ORIENTED_EDGE('',*,*,#260,.T.);
#155=ORIENTED_EDGE('',*,*,#227,.T.);
#156=ORIENTED_EDGE('',*,*,#261,.T.);
#157=ORIENTED_EDGE('',*,*,#243,.F.);
#158=ORIENTED_EDGE('',*,*,#262,.T.);
#159=ORIENTED_EDGE('',*,*,#263,.T.);
#160=ORIENTED_EDGE('',*,*,#232,.F.);
#161=ORIENTED_EDGE('',*,*,#264,.F.);
#162=ORIENTED_EDGE('',*,*,#252,.F.);
#163=ORIENTED_EDGE('',*,*,#265,.T.);
#164=ORIENTED_EDGE('',*,*,#233,.F.);
#165=ORIENTED_EDGE('',*,*,#263,.F.);
#166=ORIENTED_EDGE('',*,*,#251,.F.);
#167=ORIENTED_EDGE('',*,*,#266,.T.);
#168=ORIENTED_EDGE('',*,*,#234,.F.);
#169=ORIENTED_EDGE('',*,*,#265,.F.);
#170=ORIENTED_EDGE('',*,*,#254,.F.);
#171=ORIENTED_EDGE('',*,*,#264,.T.);
#172=ORIENTED_EDGE('',*,*,#235,.F.);
#173=ORIENTED_EDGE('',*,*,#266,.F.);
#174=ORIENTED_EDGE('',*,*,#253,.F.);
#175=ORIENTED_EDGE('',*,*,#247,.T.);
#176=ORIENTED_EDGE('',*,*,#267,.T.);
#177=ORIENTED_EDGE('',*,*,#219,.T.);
#178=ORIENTED_EDGE('',*,*,#268,.F.);
#179=ORIENTED_EDGE('',*,*,#248,.T.);
#180=ORIENTED_EDGE('',*,*,#268,.T.);
#181=ORIENTED_EDGE('',*,*,#218,.T.);
#182=ORIENTED_EDGE('',*,*,#269,.F.);
#183=ORIENTED_EDGE('',*,*,#249,.T.);
#184=ORIENTED_EDGE('',*,*,#269,.T.);
#185=ORIENTED_EDGE('',*,*,#221,.T.);
#186=ORIENTED_EDGE('',*,*,#270,.F.);
#187=ORIENTED_EDGE('',*,*,#250,.T.);
#188=ORIENTED_EDGE('',*,*,#270,.T.);
#189=ORIENTED_EDGE('',*,*,#220,.T.);
#190=ORIENTED_EDGE('',*,*,#267,.F.);
#191=ORIENTED_EDGE('',*,*,#246,.F.);
#192=ORIENTED_EDGE('',*,*,#217,.F.);
#193=ORIENTED_EDGE('',*,*,#229,.F.);
#194=ORIENTED_EDGE('',*,*,#271,.T.);
#195=ORIENTED_EDGE('',*,*,#241,.T.);
#196=ORIENTED_EDGE('',*,*,#260,.F.);
#197=ORIENTED_EDGE('',*,*,#245,.F.);
#198=ORIENTED_EDGE('',*,*,#272,.T.);
#199=ORIENTED_EDGE('',*,*,#225,.T.);
#200=ORIENTED_EDGE('',*,*,#256,.T.);
#201=ORIENTED_EDGE('',*,*,#228,.F.);
#202=ORIENTED_EDGE('',*,*,#262,.F.);
#203=ORIENTED_EDGE('',*,*,#242,.F.);
#204=ORIENTED_EDGE('',*,*,#271,.F.);
#205=ORIENTED_EDGE('',*,*,#226,.F.);
#206=ORIENTED_EDGE('',*,*,#272,.F.);
#207=ORIENTED_EDGE('',*,*,#244,.F.);
#208=ORIENTED_EDGE('',*,*,#261,.F.);
#209=ORIENTED_EDGE('',*,*,#231,.F.);
#210=ORIENTED_EDGE('',*,*,#259,.F.);
#211=ORIENTED_EDGE('',*,*,#239,.F.);
#212=ORIENTED_EDGE('',*,*,#258,.F.);
#213=ORIENTED_EDGE('',*,*,#223,.F.);
#214=ORIENTED_EDGE('',*,*,#257,.F.);
#215=ORIENTED_EDGE('',*,*,#237,.F.);
#216=ORIENTED_EDGE('',*,*,#255,.F.);
#217=EDGE_CURVE('',#273,#273,#311,.T.);
#218=EDGE_CURVE('',#274,#275,#312,.T.);
#219=EDGE_CURVE('',#276,#274,#29,.T.);
#220=EDGE_CURVE('',#277,#276,#313,.T.);
#221=EDGE_CURVE('',#275,#277,#30,.T.);
#222=EDGE_CURVE('',#278,#279,#31,.T.);
#223=EDGE_CURVE('',#278,#280,#314,.F.);
#224=EDGE_CURVE('',#281,#280,#32,.T.);
#225=EDGE_CURVE('',#282,#281,#33,.T.);
#226=EDGE_CURVE('',#282,#283,#315,.F.);
#227=EDGE_CURVE('',#284,#283,#34,.T.);
#228=EDGE_CURVE('',#284,#285,#316,.F.);
#229=EDGE_CURVE('',#285,#286,#35,.T.);
#230=EDGE_CURVE('',#287,#286,#36,.T.);
#231=EDGE_CURVE('',#287,#279,#317,.F.);
#232=EDGE_CURVE('',#288,#289,#318,.T.);
#233=EDGE_CURVE('',#289,#290,#37,.T.);
#234=EDGE_CURVE('',#290,#291,#319,.T.);
#235=EDGE_CURVE('',#291,#288,#38,.T.);
#236=EDGE_CURVE('',#292,#293,#39,.T.);
#237=EDGE_CURVE('',#293,#294,#320,.T.);
#238=EDGE_CURVE('',#294,#295,#40,.T.);
#239=EDGE_CURVE('',#295,#296,#321,.T.);
#240=EDGE_CURVE('',#296,#297,#41,.T.);
#241=EDGE_CURVE('',#298,#297,#42,.T.);
#242=EDGE_CURVE('',#298,#299,#322,.T.);
#243=EDGE_CURVE('',#299,#300,#43,.T.);
#244=EDGE_CURVE('',#300,#301,#323,.T.);
#245=EDGE_CURVE('',#301,#292,#44,.T.);
#246=EDGE_CURVE('',#302,#302,#324,.F.);
#247=EDGE_CURVE('',#303,#304,#45,.T.);
#248=EDGE_CURVE('',#305,#303,#325,.T.);
#249=EDGE_CURVE('',#306,#305,#46,.T.);
#250=EDGE_CURVE('',#304,#306,#326,.T.);
#251=EDGE_CURVE('',#307,#308,#47,.T.);
#252=EDGE_CURVE('',#308,#309,#327,.F.);
#253=EDGE_CURVE('',#309,#310,#48,.T.);
#254=EDGE_CURVE('',#310,#307,#328,.F.);
#255=EDGE_CURVE('',#280,#293,#49,.T.);
#256=EDGE_CURVE('',#281,#292,#50,.T.);
#257=EDGE_CURVE('',#294,#278,#51,.F.);
#258=EDGE_CURVE('',#279,#295,#52,.T.);
#259=EDGE_CURVE('',#296,#287,#53,.F.);
#260=EDGE_CURVE('',#286,#297,#54,.T.);
#261=EDGE_CURVE('',#283,#300,#55,.F.);
#262=EDGE_CURVE('',#299,#284,#56,.F.);
#263=EDGE_CURVE('',#308,#289,#57,.T.);
#264=EDGE_CURVE('',#309,#288,#58,.T.);
#265=EDGE_CURVE('',#307,#290,#59,.T.);
#266=EDGE_CURVE('',#310,#291,#60,.T.);
#267=EDGE_CURVE('',#304,#276,#61,.T.);
#268=EDGE_CURVE('',#303,#274,#62,.T.);
#269=EDGE_CURVE('',#305,#275,#63,.T.);
#270=EDGE_CURVE('',#306,#277,#64,.T.);
#271=EDGE_CURVE('',#285,#298,#65,.T.);
#272=EDGE_CURVE('',#301,#282,#66,.F.);
#273=VERTEX_POINT('',#591);
#274=VERTEX_POINT('',#593);
#275=VERTEX_POINT('',#594);
#276=VERTEX_POINT('',#596);
#277=VERTEX_POINT('',#598);
#278=VERTEX_POINT('',#601);
#279=VERTEX_POINT('',#602);
#280=VERTEX_POINT('',#604);
#281=VERTEX_POINT('',#606);
#282=VERTEX_POINT('',#608);
#283=VERTEX_POINT('',#610);
#284=VERTEX_POINT('',#612);
#285=VERTEX_POINT('',#614);
#286=VERTEX_POINT('',#616);
#287=VERTEX_POINT('',#618);
#288=VERTEX_POINT('',#621);
#289=VERTEX_POINT('',#622);
#290=VERTEX_POINT('',#624);
#291=VERTEX_POINT('',#626);
#292=VERTEX_POINT('',#630);
#293=VERTEX_POINT('',#631);
#294=VERTEX_POINT('',#633);
#295=VERTEX_POINT('',#635);
#296=VERTEX_POINT('',#637);
#297=VERTEX_POINT('',#639);
#298=VERTEX_POINT('',#641);
#299=VERTEX_POINT('',#643);
#300=VERTEX_POINT('',#645);
#301=VERTEX_POINT('',#647);
#302=VERTEX_POINT('',#650);
#303=VERTEX_POINT('',#652);
#304=VERTEX_POINT('',#653);
#305=VERTEX_POINT('',#655);
#306=VERTEX_POINT('',#657);
#307=VERTEX_POINT('',#660);
#308=VERTEX_POINT('',#661);
#309=VERTEX_POINT('',#663);
#310=VERTEX_POINT('',#665);
#311=CIRCLE('',#432,15.05);
#312=CIRCLE('',#433,3.19999999999999);
#313=CIRCLE('',#434,3.2);
#314=CIRCLE('',#435,6.);
#315=CIRCLE('',#436,6.);
#316=CIRCLE('',#437,6.);
#317=CIRCLE('',#438,6.);
#318=CIRCLE('',#439,3.19999999999999);
#319=CIRCLE('',#440,3.2);
#320=CIRCLE('',#442,6.);
#321=CIRCLE('',#443,6.);
#322=CIRCLE('',#444,6.);
#323=CIRCLE('',#445,6.);
#324=CIRCLE('',#446,15.05);
#325=CIRCLE('',#447,3.19999999999999);
#326=CIRCLE('',#448,3.2);
#327=CIRCLE('',#449,3.19999999999999);
#328=CIRCLE('',#450,3.2);
#329=EDGE_LOOP('',(#105));
#330=EDGE_LOOP('',(#106,#107,#108,#109));
#331=EDGE_LOOP('',(#110,#111,#112,#113,#114,#115,#116,#117,#118,#119));
#332=EDGE_LOOP('',(#120,#121,#122,#123));
#333=EDGE_LOOP('',(#124,#125,#126,#127,#128,#129,#130,#131,#132,#133));
#334=EDGE_LOOP('',(#134));
#335=EDGE_LOOP('',(#135,#136,#137,#138));
#336=EDGE_LOOP('',(#139,#140,#141,#142));
#337=EDGE_LOOP('',(#143,#144,#145,#146));
#338=EDGE_LOOP('',(#147,#148,#149,#150));
#339=EDGE_LOOP('',(#151,#152,#153,#154));
#340=EDGE_LOOP('',(#155,#156,#157,#158));
#341=EDGE_LOOP('',(#159,#160,#161,#162));
#342=EDGE_LOOP('',(#163,#164,#165,#166));
#343=EDGE_LOOP('',(#167,#168,#169,#170));
#344=EDGE_LOOP('',(#171,#172,#173,#174));
#345=EDGE_LOOP('',(#175,#176,#177,#178));
#346=EDGE_LOOP('',(#179,#180,#181,#182));
#347=EDGE_LOOP('',(#183,#184,#185,#186));
#348=EDGE_LOOP('',(#187,#188,#189,#190));
#349=EDGE_LOOP('',(#191));
#350=EDGE_LOOP('',(#192));
#351=EDGE_LOOP('',(#193,#194,#195,#196));
#352=EDGE_LOOP('',(#197,#198,#199,#200));
#353=EDGE_LOOP('',(#201,#202,#203,#204));
#354=EDGE_LOOP('',(#205,#206,#207,#208));
#355=EDGE_LOOP('',(#209,#210,#211,#212));
#356=EDGE_LOOP('',(#213,#214,#215,#216));
#357=FACE_BOUND('',#329,.T.);
#358=FACE_BOUND('',#330,.T.);
#359=FACE_BOUND('',#331,.T.);
#360=FACE_BOUND('',#332,.T.);
#361=FACE_BOUND('',#333,.T.);
#362=FACE_BOUND('',#334,.T.);
#363=FACE_BOUND('',#335,.T.);
#364=FACE_BOUND('',#336,.T.);
#365=FACE_BOUND('',#337,.T.);
#366=FACE_BOUND('',#338,.T.);
#367=FACE_BOUND('',#339,.T.);
#368=FACE_BOUND('',#340,.T.);
#369=FACE_BOUND('',#341,.T.);
#370=FACE_BOUND('',#342,.T.);
#371=FACE_BOUND('',#343,.T.);
#372=FACE_BOUND('',#344,.T.);
#373=FACE_BOUND('',#345,.T.);
#374=FACE_BOUND('',#346,.T.);
#375=FACE_BOUND('',#347,.T.);
#376=FACE_BOUND('',#348,.T.);
#377=FACE_BOUND('',#349,.T.);
#378=FACE_BOUND('',#350,.T.);
#379=FACE_BOUND('',#351,.T.);
#380=FACE_BOUND('',#352,.T.);
#381=FACE_BOUND('',#353,.T.);
#382=FACE_BOUND('',#354,.T.);
#383=FACE_BOUND('',#355,.T.);
#384=FACE_BOUND('',#356,.T.);
#385=PLANE('',#431);
#386=PLANE('',#441);
#387=PLANE('',#451);
#388=PLANE('',#452);
#389=PLANE('',#453);
#390=PLANE('',#454);
#391=PLANE('',#456);
#392=PLANE('',#458);
#393=PLANE('',#459);
#394=PLANE('',#461);
#395=PLANE('',#464);
#396=PLANE('',#465);
#397=ADVANCED_FACE('',(#357,#358,#359,#360),#385,.F.);
#398=ADVANCED_FACE('',(#361,#362,#363,#364),#386,.T.);
#399=ADVANCED_FACE('',(#365),#387,.T.);
#400=ADVANCED_FACE('',(#366),#388,.T.);
#401=ADVANCED_FACE('',(#367),#389,.T.);
#402=ADVANCED_FACE('',(#368),#390,.T.);
#403=ADVANCED_FACE('',(#369),#20,.F.);
#404=ADVANCED_FACE('',(#370),#391,.T.);
#405=ADVANCED_FACE('',(#371),#21,.F.);
#406=ADVANCED_FACE('',(#372),#392,.T.);
#407=ADVANCED_FACE('',(#373),#393,.F.);
#408=ADVANCED_FACE('',(#374),#22,.F.);
#409=ADVANCED_FACE('',(#375),#394,.F.);
#410=ADVANCED_FACE('',(#376),#23,.F.);
#411=ADVANCED_FACE('',(#377,#378),#24,.F.);
#412=ADVANCED_FACE('',(#379),#395,.F.);
#413=ADVANCED_FACE('',(#380),#396,.T.);
#414=ADVANCED_FACE('',(#381),#25,.T.);
#415=ADVANCED_FACE('',(#382),#26,.T.);
#416=ADVANCED_FACE('',(#383),#27,.T.);
#417=ADVANCED_FACE('',(#384),#28,.T.);
#418=CLOSED_SHELL('',(#397,#398,#399,#400,#401,#402,#403,#404,#405,#406,
#407,#408,#409,#410,#411,#412,#413,#414,#415,#416,#417));
#419=STYLED_ITEM('',(#420),#427);
#420=PRESENTATION_STYLE_ASSIGNMENT((#421));
#421=SURFACE_STYLE_USAGE(.BOTH.,#422);
#422=SURFACE_SIDE_STYLE('',(#423));
#423=SURFACE_STYLE_FILL_AREA(#424);
#424=FILL_AREA_STYLE('',(#425));
#425=FILL_AREA_STYLE_COLOUR('',#426);
#426=COLOUR_RGB('',0.699999988079071,0.699999988079071,0.699999988079071);
#427=MANIFOLD_SOLID_BREP('',#418);
#428=SHAPE_DEFINITION_REPRESENTATION(#710,#429);
#429=SHAPE_REPRESENTATION('À2.042 Êðîíøòåéí ÊÏ-Ì30-Ñ',(#430),#705);
#430=AXIS2_PLACEMENT_3D('',#588,#470,#471);
#431=AXIS2_PLACEMENT_3D('',#589,#472,#473);
#432=AXIS2_PLACEMENT_3D('',#590,#474,#475);
#433=AXIS2_PLACEMENT_3D('',#592,#476,#477);
#434=AXIS2_PLACEMENT_3D('',#597,#479,#480);
#435=AXIS2_PLACEMENT_3D('',#603,#483,#484);
#436=AXIS2_PLACEMENT_3D('',#609,#487,#488);
#437=AXIS2_PLACEMENT_3D('',#613,#490,#491);
#438=AXIS2_PLACEMENT_3D('',#619,#494,#495);
#439=AXIS2_PLACEMENT_3D('',#620,#496,#497);
#440=AXIS2_PLACEMENT_3D('',#625,#499,#500);
#441=AXIS2_PLACEMENT_3D('',#628,#502,#503);
#442=AXIS2_PLACEMENT_3D('',#632,#505,#506);
#443=AXIS2_PLACEMENT_3D('',#636,#508,#509);
#444=AXIS2_PLACEMENT_3D('',#642,#512,#513);
#445=AXIS2_PLACEMENT_3D('',#646,#515,#516);
#446=AXIS2_PLACEMENT_3D('',#649,#518,#519);
#447=AXIS2_PLACEMENT_3D('',#654,#521,#522);
#448=AXIS2_PLACEMENT_3D('',#658,#524,#525);
#449=AXIS2_PLACEMENT_3D('',#662,#527,#528);
#450=AXIS2_PLACEMENT_3D('',#666,#530,#531);
#451=AXIS2_PLACEMENT_3D('',#667,#532,#533);
#452=AXIS2_PLACEMENT_3D('',#670,#536,#537);
#453=AXIS2_PLACEMENT_3D('',#673,#540,#541);
#454=AXIS2_PLACEMENT_3D('',#676,#544,#545);
#455=AXIS2_PLACEMENT_3D('',#679,#548,#549);
#456=AXIS2_PLACEMENT_3D('',#682,#552,#553);
#457=AXIS2_PLACEMENT_3D('',#684,#555,#556);
#458=AXIS2_PLACEMENT_3D('',#686,#558,#559);
#459=AXIS2_PLACEMENT_3D('',#687,#560,#561);
#460=AXIS2_PLACEMENT_3D('',#690,#564,#565);
#461=AXIS2_PLACEMENT_3D('',#692,#567,#568);
#462=AXIS2_PLACEMENT_3D('',#694,#570,#571);
#463=AXIS2_PLACEMENT_3D('',#695,#572,#573);
#464=AXIS2_PLACEMENT_3D('',#696,#574,#575);
#465=AXIS2_PLACEMENT_3D('',#698,#577,#578);
#466=AXIS2_PLACEMENT_3D('',#700,#580,#581);
#467=AXIS2_PLACEMENT_3D('',#701,#582,#583);
#468=AXIS2_PLACEMENT_3D('',#702,#584,#585);
#469=AXIS2_PLACEMENT_3D('',#703,#586,#587);
#470=DIRECTION('',(0.,0.,1.));
#471=DIRECTION('',(1.,0.,0.));
#472=DIRECTION('',(0.,0.,-1.));
#473=DIRECTION('',(-1.,0.,0.));
#474=DIRECTION('',(0.,0.,-1.));
#475=DIRECTION('',(1.,0.,0.));
#476=DIRECTION('',(0.,0.,1.));
#477=DIRECTION('',(-1.,0.,0.));
#478=DIRECTION('',(-1.15648231731787E-16,-1.,0.));
#479=DIRECTION('',(0.,0.,1.));
#480=DIRECTION('',(1.,0.,0.));
#481=DIRECTION('',(8.0953762212251E-16,1.,0.));
#482=DIRECTION('',(-1.,0.,0.));
#483=DIRECTION('',(0.,0.,-1.));
#484=DIRECTION('',(-1.,0.,0.));
#485=DIRECTION('',(0.,-1.,0.));
#486=DIRECTION('',(0.17364817766693,-0.984807753012208,0.));
#487=DIRECTION('',(0.,0.,-1.));
#488=DIRECTION('',(-1.,0.,0.));
#489=DIRECTION('',(1.,0.,0.));
#490=DIRECTION('',(0.,0.,-1.));
#491=DIRECTION('',(-1.,0.,0.));
#492=DIRECTION('',(-0.17364817766693,-0.984807753012208,0.));
#493=DIRECTION('',(0.,1.,0.));
#494=DIRECTION('',(0.,0.,-1.));
#495=DIRECTION('',(-1.,0.,0.));
#496=DIRECTION('',(0.,0.,-1.));
#497=DIRECTION('',(1.,0.,0.));
#498=DIRECTION('',(-8.0953762212251E-16,1.,0.));
#499=DIRECTION('',(0.,0.,-1.));
#500=DIRECTION('',(-1.,0.,0.));
#501=DIRECTION('',(1.15648231731787E-16,-1.,0.));
#502=DIRECTION('',(0.,0.,-1.));
#503=DIRECTION('',(-1.,0.,0.));
#504=DIRECTION('',(0.,-1.,0.));
#505=DIRECTION('',(0.,0.,-1.));
#506=DIRECTION('',(-1.,0.,0.));
#507=DIRECTION('',(-1.,0.,0.));
#508=DIRECTION('',(0.,0.,-1.));
#509=DIRECTION('',(-1.,0.,0.));
#510=DIRECTION('',(0.,1.,0.));
#511=DIRECTION('',(-0.17364817766693,-0.984807753012208,0.));
#512=DIRECTION('',(0.,0.,-1.));
#513=DIRECTION('',(-1.,0.,0.));
#514=DIRECTION('',(1.,0.,0.));
#515=DIRECTION('',(0.,0.,-1.));
#516=DIRECTION('',(-1.,0.,0.));
#517=DIRECTION('',(0.17364817766693,-0.984807753012208,0.));
#518=DIRECTION('',(0.,0.,-1.));
#519=DIRECTION('',(-1.,0.,0.));
#520=DIRECTION('',(1.15648231731787E-16,1.,0.));
#521=DIRECTION('',(0.,0.,-1.));
#522=DIRECTION('',(-1.,0.,0.));
#523=DIRECTION('',(-8.0953762212251E-16,-1.,0.));
#524=DIRECTION('',(0.,0.,-1.));
#525=DIRECTION('',(-1.,0.,0.));
#526=DIRECTION('',(8.0953762212251E-16,-1.,0.));
#527=DIRECTION('',(0.,0.,-1.));
#528=DIRECTION('',(-1.,0.,0.));
#529=DIRECTION('',(-1.15648231731787E-16,1.,0.));
#530=DIRECTION('',(0.,0.,-1.));
#531=DIRECTION('',(-1.,0.,0.));
#532=DIRECTION('',(1.,0.,0.));
#533=DIRECTION('',(0.,0.,-1.));
#534=DIRECTION('',(0.,0.,-1.));
#535=DIRECTION('',(0.,0.,-1.));
#536=DIRECTION('',(0.,-1.,0.));
#537=DIRECTION('',(0.,0.,-1.));
#538=DIRECTION('',(0.,0.,-1.));
#539=DIRECTION('',(0.,0.,-1.));
#540=DIRECTION('',(-1.,0.,0.));
#541=DIRECTION('',(0.,0.,1.));
#542=DIRECTION('',(0.,0.,-1.));
#543=DIRECTION('',(0.,0.,-1.));
#544=DIRECTION('',(0.,1.,0.));
#545=DIRECTION('',(0.,0.,1.));
#546=DIRECTION('',(0.,0.,1.));
#547=DIRECTION('',(0.,0.,-1.));
#548=DIRECTION('',(0.,0.,1.));
#549=DIRECTION('',(1.,0.,0.));
#550=DIRECTION('',(0.,0.,1.));
#551=DIRECTION('',(0.,0.,1.));
#552=DIRECTION('',(1.,8.0953762212251E-16,0.));
#553=DIRECTION('',(-8.0953762212251E-16,1.,0.));
#554=DIRECTION('',(0.,0.,1.));
#555=DIRECTION('',(0.,0.,1.));
#556=DIRECTION('',(1.,0.,0.));
#557=DIRECTION('',(0.,0.,1.));
#558=DIRECTION('',(-1.,-1.15648231731787E-16,0.));
#559=DIRECTION('',(1.15648231731787E-16,-1.,0.));
#560=DIRECTION('',(-1.,1.15648231731787E-16,0.));
#561=DIRECTION('',(-1.15648231731787E-16,-1.,0.));
#562=DIRECTION('',(0.,0.,1.));
#563=DIRECTION('',(0.,0.,1.));
#564=DIRECTION('',(0.,0.,1.));
#565=DIRECTION('',(1.,0.,0.));
#566=DIRECTION('',(0.,0.,1.));
#567=DIRECTION('',(1.,-8.0953762212251E-16,0.));
#568=DIRECTION('',(8.0953762212251E-16,1.,0.));
#569=DIRECTION('',(0.,0.,1.));
#570=DIRECTION('',(0.,0.,1.));
#571=DIRECTION('',(1.,0.,0.));
#572=DIRECTION('',(0.,0.,1.));
#573=DIRECTION('',(1.,0.,0.));
#574=DIRECTION('',(0.984807753012208,-0.17364817766693,0.));
#575=DIRECTION('',(-0.17364817766693,-0.984807753012208,0.));
#576=DIRECTION('',(0.,0.,-1.));
#577=DIRECTION('',(0.984807753012208,0.17364817766693,0.));
#578=DIRECTION('',(0.17364817766693,-0.984807753012208,0.));
#579=DIRECTION('',(0.,0.,-1.));
#580=DIRECTION('',(0.,0.,1.));
#581=DIRECTION('',(1.,0.,0.));
#582=DIRECTION('',(0.,0.,-1.));
#583=DIRECTION('',(-1.,0.,0.));
#584=DIRECTION('',(0.,0.,-1.));
#585=DIRECTION('',(-1.,0.,0.));
#586=DIRECTION('',(0.,0.,-1.));
#587=DIRECTION('',(-1.,0.,0.));
#588=CARTESIAN_POINT('',(0.,0.,0.));
#589=CARTESIAN_POINT('',(0.,0.,2.));
#590=CARTESIAN_POINT('',(-1.28587913910472E-15,21.,2.));
#591=CARTESIAN_POINT('',(15.05,21.,2.));
#592=CARTESIAN_POINT('',(19.,-38.,2.));
#593=CARTESIAN_POINT('',(15.8,-38.,2.));
#594=CARTESIAN_POINT('',(22.2,-38.,2.));
#595=CARTESIAN_POINT('',(15.8,-8.00000000000001,2.));
#596=CARTESIAN_POINT('',(15.8,-8.00000000000001,2.));
#597=CARTESIAN_POINT('',(19.,-8.00000000000001,2.));
#598=CARTESIAN_POINT('',(22.2,-8.00000000000001,2.));
#599=CARTESIAN_POINT('',(22.2,-38.,2.));
#600=CARTESIAN_POINT('',(27.5,-45.,2.));
#601=CARTESIAN_POINT('',(21.5,-45.,2.));
#602=CARTESIAN_POINT('',(-21.5,-45.,2.));
#603=CARTESIAN_POINT('',(21.5,-39.,2.));
#604=CARTESIAN_POINT('',(27.5,-39.,2.));
#605=CARTESIAN_POINT('',(27.5,45.,2.));
#606=CARTESIAN_POINT('',(27.5,1.42681005899092E-13,2.));
#607=CARTESIAN_POINT('',(26.6707735358062,4.70277697072795,2.));
#608=CARTESIAN_POINT('',(20.4395345991286,40.0418890660016,2.));
#609=CARTESIAN_POINT('',(14.5306880810554,39.,2.));
#610=CARTESIAN_POINT('',(14.5306880810554,45.,2.));
#611=CARTESIAN_POINT('',(-27.5,45.,2.));
#612=CARTESIAN_POINT('',(-14.5306880810554,45.,2.));
#613=CARTESIAN_POINT('',(-14.5306880810554,39.,2.));
#614=CARTESIAN_POINT('',(-20.4395345991287,40.0418890660016,2.));
#615=CARTESIAN_POINT('',(-26.6707735358062,4.70277697072793,2.));
#616=CARTESIAN_POINT('',(-27.5,-3.21357523924704E-13,2.));
#617=CARTESIAN_POINT('',(-27.5,-45.,2.));
#618=CARTESIAN_POINT('',(-27.5,-39.,2.));
#619=CARTESIAN_POINT('',(-21.5,-39.,2.));
#620=CARTESIAN_POINT('',(-19.,-38.,2.));
#621=CARTESIAN_POINT('',(-15.8,-38.,2.));
#622=CARTESIAN_POINT('',(-22.2,-38.,2.));
#623=CARTESIAN_POINT('',(-22.2,-38.,2.));
#624=CARTESIAN_POINT('',(-22.2,-8.00000000000001,2.));
#625=CARTESIAN_POINT('',(-19.,-8.00000000000001,2.));
#626=CARTESIAN_POINT('',(-15.8,-8.00000000000001,2.));
#627=CARTESIAN_POINT('',(-15.8,-8.00000000000001,2.));
#628=CARTESIAN_POINT('',(0.,0.,0.));
#629=CARTESIAN_POINT('',(27.5,45.,0.));
#630=CARTESIAN_POINT('',(27.5,1.42681005899092E-13,0.));
#631=CARTESIAN_POINT('',(27.5,-39.,0.));
#632=CARTESIAN_POINT('',(21.5,-39.,0.));
#633=CARTESIAN_POINT('',(21.5,-45.,0.));
#634=CARTESIAN_POINT('',(27.5,-45.,0.));
#635=CARTESIAN_POINT('',(-21.5,-45.,0.));
#636=CARTESIAN_POINT('',(-21.5,-39.,0.));
#637=CARTESIAN_POINT('',(-27.5,-39.,0.));
#638=CARTESIAN_POINT('',(-27.5,-45.,0.));
#639=CARTESIAN_POINT('',(-27.5,-3.21357523924704E-13,0.));
#640=CARTESIAN_POINT('',(-26.6707735358062,4.70277697072793,0.));
#641=CARTESIAN_POINT('',(-20.4395345991287,40.0418890660016,0.));
#642=CARTESIAN_POINT('',(-14.5306880810554,39.,0.));
#643=CARTESIAN_POINT('',(-14.5306880810554,45.,0.));
#644=CARTESIAN_POINT('',(-27.5,45.,0.));
#645=CARTESIAN_POINT('',(14.5306880810554,45.,0.));
#646=CARTESIAN_POINT('',(14.5306880810554,39.,0.));
#647=CARTESIAN_POINT('',(20.4395345991286,40.0418890660016,0.));
#648=CARTESIAN_POINT('',(26.6707735358062,4.70277697072795,0.));
#649=CARTESIAN_POINT('',(-1.28587913910472E-15,21.,0.));
#650=CARTESIAN_POINT('',(-15.05,21.,0.));
#651=CARTESIAN_POINT('',(15.8,-1.82724206136224E-15,0.));
#652=CARTESIAN_POINT('',(15.8,-38.,-3.46944695195361E-15));
#653=CARTESIAN_POINT('',(15.8,-8.00000000000001,0.));
#654=CARTESIAN_POINT('',(19.,-38.,0.));
#655=CARTESIAN_POINT('',(22.2,-38.,-3.46944695195361E-15));
#656=CARTESIAN_POINT('',(22.2,-1.79717352111197E-14,0.));
#657=CARTESIAN_POINT('',(22.2,-8.00000000000001,-3.46944695195361E-15));
#658=CARTESIAN_POINT('',(19.,-8.00000000000001,0.));
#659=CARTESIAN_POINT('',(-22.2,-1.79717352111197E-14,0.));
#660=CARTESIAN_POINT('',(-22.2,-8.00000000000001,-3.46944695195361E-15));
#661=CARTESIAN_POINT('',(-22.2,-38.,-3.46944695195361E-15));
#662=CARTESIAN_POINT('',(-19.,-38.,0.));
#663=CARTESIAN_POINT('',(-15.8,-38.,-3.46944695195361E-15));
#664=CARTESIAN_POINT('',(-15.8,-1.82724206136224E-15,0.));
#665=CARTESIAN_POINT('',(-15.8,-8.00000000000001,0.));
#666=CARTESIAN_POINT('',(-19.,-8.00000000000001,0.));
#667=CARTESIAN_POINT('',(27.5,45.,2.));
#668=CARTESIAN_POINT('',(27.5,-39.,2.));
#669=CARTESIAN_POINT('',(27.5,1.42681005899092E-13,0.));
#670=CARTESIAN_POINT('',(27.5,-45.,2.));
#671=CARTESIAN_POINT('',(21.5,-45.,2.));
#672=CARTESIAN_POINT('',(-21.5,-45.,2.));
#673=CARTESIAN_POINT('',(-27.5,-45.,2.));
#674=CARTESIAN_POINT('',(-27.5,-39.,2.));
#675=CARTESIAN_POINT('',(-27.5,-3.21357523924704E-13,0.));
#676=CARTESIAN_POINT('',(-27.5,45.,2.));
#677=CARTESIAN_POINT('',(14.5306880810554,45.,0.));
#678=CARTESIAN_POINT('',(-14.5306880810554,45.,2.));
#679=CARTESIAN_POINT('',(-19.,-38.,-12.869616145046));
#680=CARTESIAN_POINT('',(-22.2,-38.,-12.869616145046));
#681=CARTESIAN_POINT('',(-15.8,-38.,-12.869616145046));
#682=CARTESIAN_POINT('',(-22.2,-38.,-12.869616145046));
#683=CARTESIAN_POINT('',(-22.2,-8.00000000000001,-12.869616145046));
#684=CARTESIAN_POINT('',(-19.,-8.00000000000001,-12.869616145046));
#685=CARTESIAN_POINT('',(-15.8,-8.00000000000001,-12.869616145046));
#686=CARTESIAN_POINT('',(-15.8,-8.00000000000001,-12.869616145046));
#687=CARTESIAN_POINT('',(15.8,-8.00000000000001,-12.869616145046));
#688=CARTESIAN_POINT('',(15.8,-8.00000000000001,-12.869616145046));
#689=CARTESIAN_POINT('',(15.8,-38.,-12.869616145046));
#690=CARTESIAN_POINT('',(19.,-38.,-12.869616145046));
#691=CARTESIAN_POINT('',(22.2,-38.,-12.869616145046));
#692=CARTESIAN_POINT('',(22.2,-38.,-12.869616145046));
#693=CARTESIAN_POINT('',(22.2,-8.00000000000001,-12.869616145046));
#694=CARTESIAN_POINT('',(19.,-8.00000000000001,-12.869616145046));
#695=CARTESIAN_POINT('',(-1.28587913910472E-15,21.,-11.7632481631183));
#696=CARTESIAN_POINT('',(-26.6707735358062,4.70277697072793,0.));
#697=CARTESIAN_POINT('',(-20.4395345991287,40.0418890660016,0.));
#698=CARTESIAN_POINT('',(26.6707735358062,4.70277697072795,0.));
#699=CARTESIAN_POINT('',(20.4395345991286,40.0418890660016,2.));
#700=CARTESIAN_POINT('',(-14.5306880810554,39.,0.));
#701=CARTESIAN_POINT('',(14.5306880810554,39.,2.));
#702=CARTESIAN_POINT('',(-21.5,-39.,2.));
#703=CARTESIAN_POINT('',(21.5,-39.,2.));
#704=MECHANICAL_DESIGN_GEOMETRIC_PRESENTATION_REPRESENTATION('',(#419),
#705);
#705=(
GEOMETRIC_REPRESENTATION_CONTEXT(3)
GLOBAL_UNCERTAINTY_ASSIGNED_CONTEXT((#706))
GLOBAL_UNIT_ASSIGNED_CONTEXT((#709,#708,#707))
REPRESENTATION_CONTEXT('À2.042 Êðîíøòåéí ÊÏ-Ì30-Ñ',
'TOP_LEVEL_ASSEMBLY_PART')
);
#706=UNCERTAINTY_MEASURE_WITH_UNIT(LENGTH_MEASURE(0.005),#709,
'DISTANCE_ACCURACY_VALUE','Maximum Tolerance applied to model');
#707=(
NAMED_UNIT(*)
SI_UNIT($,.STERADIAN.)
SOLID_ANGLE_UNIT()
);
#708=(
NAMED_UNIT(*)
PLANE_ANGLE_UNIT()
SI_UNIT($,.RADIAN.)
);
#709=(
LENGTH_UNIT()
NAMED_UNIT(*)
SI_UNIT(.MILLI.,.METRE.)
);
#710=PRODUCT_DEFINITION_SHAPE('','',#711);
#711=PRODUCT_DEFINITION('','',#713,#712);
#712=PRODUCT_DEFINITION_CONTEXT('',#719,'design');
#713=PRODUCT_DEFINITION_FORMATION_WITH_SPECIFIED_SOURCE('','',#715,
 .NOT_KNOWN.);
#714=PRODUCT_RELATED_PRODUCT_CATEGORY('','',(#715));
#715=PRODUCT('À2.042 Êðîíøòåéí ÊÏ-Ì30-Ñ','À2.042 Êðîíøòåéí ÊÏ-Ì30-Ñ',
'À2.042 Êðîíøòåéí ÊÏ-Ì30-Ñ',(#717));
#716=PRODUCT_CATEGORY('','');
#717=PRODUCT_CONTEXT('',#719,'mechanical');
#718=APPLICATION_PROTOCOL_DEFINITION('international standard',
'automotive_design',2010,#719);
#719=APPLICATION_CONTEXT(
'core data for automotive mechanical design processes');
ENDSEC;
END-ISO-10303-21;
