ISO-10303-21;
HEADER;
/* Generated by software containing ST-Developer
 * from STEP Tools, Inc. (www.steptools.com) 
 */
/* OPTION: strings as raw bytes, not using required /X/ escapes */

FILE_DESCRIPTION(
/* description */ ('Unknown'),
/* implementation_level */ '2;1');

FILE_NAME(
/* name */ '_PV-KP-M18-S',
/* time_stamp */ '2021-01-18T18:04:25+05:00',
/* author */ ('Unknown'),
/* organization */ ('Unknown'),
/* preprocessor_version */ 'ST-DEVELOPER v16.7',
/* originating_system */ 'Solid Edge',
/* authorisation */ 'Unknown');

FILE_SCHEMA (('AUTOMOTIVE_DESIGN {1 0 10303 214 3 1 1}'));
ENDSEC;

DATA;
#10=PROPERTY_DEFINITION_REPRESENTATION(#14,#12);
#11=PROPERTY_DEFINITION_REPRESENTATION(#15,#13);
#12=REPRESENTATION('',(#16),#705);
#13=REPRESENTATION('',(#17),#705);
#14=PROPERTY_DEFINITION('pmi validation property','',#710);
#15=PROPERTY_DEFINITION('pmi validation property','',#710);
#16=VALUE_REPRESENTATION_ITEM('number of annotations',COUNT_MEASURE(0.));
#17=VALUE_REPRESENTATION_ITEM('number of views',COUNT_MEASURE(0.));
#18=SHAPE_REPRESENTATION_RELATIONSHIP('','',#429,#19);
#19=ADVANCED_BREP_SHAPE_REPRESENTATION('',(#427),#705);
#20=CYLINDRICAL_SURFACE('',#456,3.2);
#21=CYLINDRICAL_SURFACE('',#458,3.19999999999999);
#22=CYLINDRICAL_SURFACE('',#460,3.19999999999999);
#23=CYLINDRICAL_SURFACE('',#462,3.2);
#24=CYLINDRICAL_SURFACE('',#463,9.05);
#25=CYLINDRICAL_SURFACE('',#466,6.);
#26=CYLINDRICAL_SURFACE('',#467,6.);
#27=CYLINDRICAL_SURFACE('',#468,6.);
#28=CYLINDRICAL_SURFACE('',#469,6.);
#29=CIRCLE('',#436,9.05);
#30=CIRCLE('',#437,3.19999999999999);
#31=CIRCLE('',#438,3.2);
#32=CIRCLE('',#439,3.2);
#33=CIRCLE('',#440,3.19999999999999);
#34=CIRCLE('',#441,6.);
#35=CIRCLE('',#442,6.);
#36=CIRCLE('',#443,6.);
#37=CIRCLE('',#444,6.);
#38=CIRCLE('',#446,6.);
#39=CIRCLE('',#447,6.);
#40=CIRCLE('',#448,6.);
#41=CIRCLE('',#449,6.);
#42=CIRCLE('',#450,9.05);
#43=CIRCLE('',#451,3.19999999999999);
#44=CIRCLE('',#452,3.2);
#45=CIRCLE('',#453,3.2);
#46=CIRCLE('',#454,3.19999999999999);
#47=ORIENTED_EDGE('',*,*,#159,.T.);
#48=ORIENTED_EDGE('',*,*,#160,.T.);
#49=ORIENTED_EDGE('',*,*,#161,.F.);
#50=ORIENTED_EDGE('',*,*,#162,.F.);
#51=ORIENTED_EDGE('',*,*,#163,.T.);
#52=ORIENTED_EDGE('',*,*,#164,.T.);
#53=ORIENTED_EDGE('',*,*,#165,.F.);
#54=ORIENTED_EDGE('',*,*,#166,.T.);
#55=ORIENTED_EDGE('',*,*,#167,.F.);
#56=ORIENTED_EDGE('',*,*,#168,.T.);
#57=ORIENTED_EDGE('',*,*,#169,.T.);
#58=ORIENTED_EDGE('',*,*,#170,.T.);
#59=ORIENTED_EDGE('',*,*,#171,.F.);
#60=ORIENTED_EDGE('',*,*,#172,.T.);
#61=ORIENTED_EDGE('',*,*,#173,.T.);
#62=ORIENTED_EDGE('',*,*,#174,.T.);
#63=ORIENTED_EDGE('',*,*,#175,.T.);
#64=ORIENTED_EDGE('',*,*,#176,.F.);
#65=ORIENTED_EDGE('',*,*,#177,.F.);
#66=ORIENTED_EDGE('',*,*,#178,.F.);
#67=ORIENTED_EDGE('',*,*,#179,.F.);
#68=ORIENTED_EDGE('',*,*,#180,.T.);
#69=ORIENTED_EDGE('',*,*,#181,.T.);
#70=ORIENTED_EDGE('',*,*,#182,.T.);
#71=ORIENTED_EDGE('',*,*,#183,.T.);
#72=ORIENTED_EDGE('',*,*,#169,.F.);
#73=ORIENTED_EDGE('',*,*,#184,.T.);
#74=ORIENTED_EDGE('',*,*,#163,.F.);
#75=ORIENTED_EDGE('',*,*,#185,.T.);
#76=ORIENTED_EDGE('',*,*,#159,.F.);
#77=ORIENTED_EDGE('',*,*,#186,.F.);
#78=ORIENTED_EDGE('',*,*,#187,.T.);
#79=ORIENTED_EDGE('',*,*,#173,.F.);
#80=ORIENTED_EDGE('',*,*,#188,.T.);
#81=ORIENTED_EDGE('',*,*,#189,.F.);
#82=ORIENTED_EDGE('',*,*,#165,.T.);
#83=ORIENTED_EDGE('',*,*,#190,.T.);
#84=ORIENTED_EDGE('',*,*,#167,.T.);
#85=ORIENTED_EDGE('',*,*,#191,.T.);
#86=ORIENTED_EDGE('',*,*,#192,.T.);
#87=ORIENTED_EDGE('',*,*,#171,.T.);
#88=ORIENTED_EDGE('',*,*,#193,.T.);
#89=ORIENTED_EDGE('',*,*,#194,.T.);
#90=ORIENTED_EDGE('',*,*,#161,.T.);
#91=ORIENTED_EDGE('',*,*,#195,.T.);
#92=ORIENTED_EDGE('',*,*,#196,.T.);
#93=ORIENTED_EDGE('',*,*,#197,.F.);
#94=ORIENTED_EDGE('',*,*,#198,.F.);
#95=ORIENTED_EDGE('',*,*,#199,.F.);
#96=ORIENTED_EDGE('',*,*,#200,.F.);
#97=ORIENTED_EDGE('',*,*,#201,.T.);
#98=ORIENTED_EDGE('',*,*,#202,.T.);
#99=ORIENTED_EDGE('',*,*,#203,.T.);
#100=ORIENTED_EDGE('',*,*,#204,.T.);
#101=ORIENTED_EDGE('',*,*,#205,.T.);
#102=ORIENTED_EDGE('',*,*,#180,.F.);
#103=ORIENTED_EDGE('',*,*,#206,.F.);
#104=ORIENTED_EDGE('',*,*,#202,.F.);
#105=ORIENTED_EDGE('',*,*,#207,.T.);
#106=ORIENTED_EDGE('',*,*,#181,.F.);
#107=ORIENTED_EDGE('',*,*,#205,.F.);
#108=ORIENTED_EDGE('',*,*,#201,.F.);
#109=ORIENTED_EDGE('',*,*,#208,.T.);
#110=ORIENTED_EDGE('',*,*,#182,.F.);
#111=ORIENTED_EDGE('',*,*,#207,.F.);
#112=ORIENTED_EDGE('',*,*,#204,.F.);
#113=ORIENTED_EDGE('',*,*,#206,.T.);
#114=ORIENTED_EDGE('',*,*,#183,.F.);
#115=ORIENTED_EDGE('',*,*,#208,.F.);
#116=ORIENTED_EDGE('',*,*,#203,.F.);
#117=ORIENTED_EDGE('',*,*,#197,.T.);
#118=ORIENTED_EDGE('',*,*,#209,.T.);
#119=ORIENTED_EDGE('',*,*,#177,.T.);
#120=ORIENTED_EDGE('',*,*,#210,.F.);
#121=ORIENTED_EDGE('',*,*,#198,.T.);
#122=ORIENTED_EDGE('',*,*,#210,.T.);
#123=ORIENTED_EDGE('',*,*,#176,.T.);
#124=ORIENTED_EDGE('',*,*,#211,.F.);
#125=ORIENTED_EDGE('',*,*,#199,.T.);
#126=ORIENTED_EDGE('',*,*,#211,.T.);
#127=ORIENTED_EDGE('',*,*,#179,.T.);
#128=ORIENTED_EDGE('',*,*,#212,.F.);
#129=ORIENTED_EDGE('',*,*,#200,.T.);
#130=ORIENTED_EDGE('',*,*,#212,.T.);
#131=ORIENTED_EDGE('',*,*,#178,.T.);
#132=ORIENTED_EDGE('',*,*,#209,.F.);
#133=ORIENTED_EDGE('',*,*,#196,.F.);
#134=ORIENTED_EDGE('',*,*,#175,.F.);
#135=ORIENTED_EDGE('',*,*,#189,.T.);
#136=ORIENTED_EDGE('',*,*,#213,.T.);
#137=ORIENTED_EDGE('',*,*,#191,.F.);
#138=ORIENTED_EDGE('',*,*,#170,.F.);
#139=ORIENTED_EDGE('',*,*,#194,.F.);
#140=ORIENTED_EDGE('',*,*,#214,.T.);
#141=ORIENTED_EDGE('',*,*,#186,.T.);
#142=ORIENTED_EDGE('',*,*,#162,.T.);
#143=ORIENTED_EDGE('',*,*,#187,.F.);
#144=ORIENTED_EDGE('',*,*,#214,.F.);
#145=ORIENTED_EDGE('',*,*,#193,.F.);
#146=ORIENTED_EDGE('',*,*,#174,.F.);
#147=ORIENTED_EDGE('',*,*,#188,.F.);
#148=ORIENTED_EDGE('',*,*,#172,.F.);
#149=ORIENTED_EDGE('',*,*,#192,.F.);
#150=ORIENTED_EDGE('',*,*,#213,.F.);
#151=ORIENTED_EDGE('',*,*,#185,.F.);
#152=ORIENTED_EDGE('',*,*,#166,.F.);
#153=ORIENTED_EDGE('',*,*,#195,.F.);
#154=ORIENTED_EDGE('',*,*,#160,.F.);
#155=ORIENTED_EDGE('',*,*,#184,.F.);
#156=ORIENTED_EDGE('',*,*,#168,.F.);
#157=ORIENTED_EDGE('',*,*,#190,.F.);
#158=ORIENTED_EDGE('',*,*,#164,.F.);
#159=EDGE_CURVE('',#215,#216,#253,.T.);
#160=EDGE_CURVE('',#216,#217,#254,.T.);
#161=EDGE_CURVE('',#218,#217,#255,.T.);
#162=EDGE_CURVE('',#215,#218,#256,.T.);
#163=EDGE_CURVE('',#219,#220,#257,.T.);
#164=EDGE_CURVE('',#220,#221,#258,.T.);
#165=EDGE_CURVE('',#222,#221,#259,.T.);
#166=EDGE_CURVE('',#222,#219,#260,.F.);
#167=EDGE_CURVE('',#223,#224,#261,.T.);
#168=EDGE_CURVE('',#223,#225,#262,.F.);
#169=EDGE_CURVE('',#225,#226,#263,.T.);
#170=EDGE_CURVE('',#226,#224,#264,.T.);
#171=EDGE_CURVE('',#227,#228,#265,.T.);
#172=EDGE_CURVE('',#227,#229,#266,.T.);
#173=EDGE_CURVE('',#229,#230,#267,.T.);
#174=EDGE_CURVE('',#230,#228,#268,.F.);
#175=EDGE_CURVE('',#231,#231,#29,.T.);
#176=EDGE_CURVE('',#232,#233,#30,.T.);
#177=EDGE_CURVE('',#234,#232,#269,.T.);
#178=EDGE_CURVE('',#235,#234,#31,.T.);
#179=EDGE_CURVE('',#233,#235,#270,.T.);
#180=EDGE_CURVE('',#236,#237,#271,.T.);
#181=EDGE_CURVE('',#237,#238,#32,.T.);
#182=EDGE_CURVE('',#238,#239,#272,.T.);
#183=EDGE_CURVE('',#239,#236,#33,.T.);
#184=EDGE_CURVE('',#225,#220,#34,.F.);
#185=EDGE_CURVE('',#219,#216,#35,.F.);
#186=EDGE_CURVE('',#240,#215,#273,.T.);
#187=EDGE_CURVE('',#240,#230,#36,.F.);
#188=EDGE_CURVE('',#229,#241,#37,.F.);
#189=EDGE_CURVE('',#226,#241,#274,.T.);
#190=EDGE_CURVE('',#221,#223,#38,.T.);
#191=EDGE_CURVE('',#224,#242,#275,.T.);
#192=EDGE_CURVE('',#242,#227,#39,.T.);
#193=EDGE_CURVE('',#228,#243,#40,.T.);
#194=EDGE_CURVE('',#243,#218,#276,.T.);
#195=EDGE_CURVE('',#217,#222,#41,.T.);
#196=EDGE_CURVE('',#244,#244,#42,.F.);
#197=EDGE_CURVE('',#245,#246,#277,.T.);
#198=EDGE_CURVE('',#247,#245,#43,.T.);
#199=EDGE_CURVE('',#248,#247,#278,.T.);
#200=EDGE_CURVE('',#246,#248,#44,.T.);
#201=EDGE_CURVE('',#249,#250,#45,.F.);
#202=EDGE_CURVE('',#250,#251,#279,.T.);
#203=EDGE_CURVE('',#251,#252,#46,.F.);
#204=EDGE_CURVE('',#252,#249,#280,.T.);
#205=EDGE_CURVE('',#250,#237,#281,.T.);
#206=EDGE_CURVE('',#251,#236,#282,.T.);
#207=EDGE_CURVE('',#249,#238,#283,.T.);
#208=EDGE_CURVE('',#252,#239,#284,.T.);
#209=EDGE_CURVE('',#246,#234,#285,.T.);
#210=EDGE_CURVE('',#245,#232,#286,.T.);
#211=EDGE_CURVE('',#247,#233,#287,.T.);
#212=EDGE_CURVE('',#248,#235,#288,.T.);
#213=EDGE_CURVE('',#241,#242,#289,.T.);
#214=EDGE_CURVE('',#243,#240,#290,.F.);
#215=VERTEX_POINT('',#591);
#216=VERTEX_POINT('',#592);
#217=VERTEX_POINT('',#594);
#218=VERTEX_POINT('',#596);
#219=VERTEX_POINT('',#600);
#220=VERTEX_POINT('',#601);
#221=VERTEX_POINT('',#603);
#222=VERTEX_POINT('',#605);
#223=VERTEX_POINT('',#609);
#224=VERTEX_POINT('',#610);
#225=VERTEX_POINT('',#612);
#226=VERTEX_POINT('',#614);
#227=VERTEX_POINT('',#618);
#228=VERTEX_POINT('',#619);
#229=VERTEX_POINT('',#621);
#230=VERTEX_POINT('',#623);
#231=VERTEX_POINT('',#627);
#232=VERTEX_POINT('',#629);
#233=VERTEX_POINT('',#630);
#234=VERTEX_POINT('',#632);
#235=VERTEX_POINT('',#634);
#236=VERTEX_POINT('',#637);
#237=VERTEX_POINT('',#638);
#238=VERTEX_POINT('',#640);
#239=VERTEX_POINT('',#642);
#240=VERTEX_POINT('',#647);
#241=VERTEX_POINT('',#650);
#242=VERTEX_POINT('',#655);
#243=VERTEX_POINT('',#658);
#244=VERTEX_POINT('',#662);
#245=VERTEX_POINT('',#664);
#246=VERTEX_POINT('',#665);
#247=VERTEX_POINT('',#667);
#248=VERTEX_POINT('',#669);
#249=VERTEX_POINT('',#672);
#250=VERTEX_POINT('',#673);
#251=VERTEX_POINT('',#675);
#252=VERTEX_POINT('',#677);
#253=LINE('',#590,#291);
#254=LINE('',#593,#292);
#255=LINE('',#595,#293);
#256=LINE('',#597,#294);
#257=LINE('',#599,#295);
#258=LINE('',#602,#296);
#259=LINE('',#604,#297);
#260=LINE('',#606,#298);
#261=LINE('',#608,#299);
#262=LINE('',#611,#300);
#263=LINE('',#613,#301);
#264=LINE('',#615,#302);
#265=LINE('',#617,#303);
#266=LINE('',#620,#304);
#267=LINE('',#622,#305);
#268=LINE('',#624,#306);
#269=LINE('',#631,#307);
#270=LINE('',#635,#308);
#271=LINE('',#636,#309);
#272=LINE('',#641,#310);
#273=LINE('',#646,#311);
#274=LINE('',#651,#312);
#275=LINE('',#654,#313);
#276=LINE('',#659,#314);
#277=LINE('',#663,#315);
#278=LINE('',#668,#316);
#279=LINE('',#674,#317);
#280=LINE('',#678,#318);
#281=LINE('',#680,#319);
#282=LINE('',#681,#320);
#283=LINE('',#683,#321);
#284=LINE('',#685,#322);
#285=LINE('',#688,#323);
#286=LINE('',#689,#324);
#287=LINE('',#691,#325);
#288=LINE('',#693,#326);
#289=LINE('',#697,#327);
#290=LINE('',#699,#328);
#291=VECTOR('',#474,1000.);
#292=VECTOR('',#475,1000.);
#293=VECTOR('',#476,1000.);
#294=VECTOR('',#477,1000.);
#295=VECTOR('',#480,1000.);
#296=VECTOR('',#481,1000.);
#297=VECTOR('',#482,1000.);
#298=VECTOR('',#483,1000.);
#299=VECTOR('',#486,1000.);
#300=VECTOR('',#487,1000.);
#301=VECTOR('',#488,1000.);
#302=VECTOR('',#489,1000.);
#303=VECTOR('',#492,1000.);
#304=VECTOR('',#493,1000.);
#305=VECTOR('',#494,1000.);
#306=VECTOR('',#495,1000.);
#307=VECTOR('',#502,1000.);
#308=VECTOR('',#505,1000.);
#309=VECTOR('',#506,1000.);
#310=VECTOR('',#509,1000.);
#311=VECTOR('',#516,1000.);
#312=VECTOR('',#521,1000.);
#313=VECTOR('',#526,1000.);
#314=VECTOR('',#531,1000.);
#315=VECTOR('',#536,1000.);
#316=VECTOR('',#539,1000.);
#317=VECTOR('',#544,1000.);
#318=VECTOR('',#547,1000.);
#319=VECTOR('',#550,1000.);
#320=VECTOR('',#551,1000.);
#321=VECTOR('',#554,1000.);
#322=VECTOR('',#557,1000.);
#323=VECTOR('',#562,1000.);
#324=VECTOR('',#563,1000.);
#325=VECTOR('',#566,1000.);
#326=VECTOR('',#569,1000.);
#327=VECTOR('',#576,1000.);
#328=VECTOR('',#579,1000.);
#329=EDGE_LOOP('',(#47,#48,#49,#50));
#330=EDGE_LOOP('',(#51,#52,#53,#54));
#331=EDGE_LOOP('',(#55,#56,#57,#58));
#332=EDGE_LOOP('',(#59,#60,#61,#62));
#333=EDGE_LOOP('',(#63));
#334=EDGE_LOOP('',(#64,#65,#66,#67));
#335=EDGE_LOOP('',(#68,#69,#70,#71));
#336=EDGE_LOOP('',(#72,#73,#74,#75,#76,#77,#78,#79,#80,#81));
#337=EDGE_LOOP('',(#82,#83,#84,#85,#86,#87,#88,#89,#90,#91));
#338=EDGE_LOOP('',(#92));
#339=EDGE_LOOP('',(#93,#94,#95,#96));
#340=EDGE_LOOP('',(#97,#98,#99,#100));
#341=EDGE_LOOP('',(#101,#102,#103,#104));
#342=EDGE_LOOP('',(#105,#106,#107,#108));
#343=EDGE_LOOP('',(#109,#110,#111,#112));
#344=EDGE_LOOP('',(#113,#114,#115,#116));
#345=EDGE_LOOP('',(#117,#118,#119,#120));
#346=EDGE_LOOP('',(#121,#122,#123,#124));
#347=EDGE_LOOP('',(#125,#126,#127,#128));
#348=EDGE_LOOP('',(#129,#130,#131,#132));
#349=EDGE_LOOP('',(#133));
#350=EDGE_LOOP('',(#134));
#351=EDGE_LOOP('',(#135,#136,#137,#138));
#352=EDGE_LOOP('',(#139,#140,#141,#142));
#353=EDGE_LOOP('',(#143,#144,#145,#146));
#354=EDGE_LOOP('',(#147,#148,#149,#150));
#355=EDGE_LOOP('',(#151,#152,#153,#154));
#356=EDGE_LOOP('',(#155,#156,#157,#158));
#357=FACE_BOUND('',#329,.T.);
#358=FACE_BOUND('',#330,.T.);
#359=FACE_BOUND('',#331,.T.);
#360=FACE_BOUND('',#332,.T.);
#361=FACE_BOUND('',#333,.T.);
#362=FACE_BOUND('',#334,.T.);
#363=FACE_BOUND('',#335,.T.);
#364=FACE_BOUND('',#336,.T.);
#365=FACE_BOUND('',#337,.T.);
#366=FACE_BOUND('',#338,.T.);
#367=FACE_BOUND('',#339,.T.);
#368=FACE_BOUND('',#340,.T.);
#369=FACE_BOUND('',#341,.T.);
#370=FACE_BOUND('',#342,.T.);
#371=FACE_BOUND('',#343,.T.);
#372=FACE_BOUND('',#344,.T.);
#373=FACE_BOUND('',#345,.T.);
#374=FACE_BOUND('',#346,.T.);
#375=FACE_BOUND('',#347,.T.);
#376=FACE_BOUND('',#348,.T.);
#377=FACE_BOUND('',#349,.T.);
#378=FACE_BOUND('',#350,.T.);
#379=FACE_BOUND('',#351,.T.);
#380=FACE_BOUND('',#352,.T.);
#381=FACE_BOUND('',#353,.T.);
#382=FACE_BOUND('',#354,.T.);
#383=FACE_BOUND('',#355,.T.);
#384=FACE_BOUND('',#356,.T.);
#385=PLANE('',#431);
#386=PLANE('',#432);
#387=PLANE('',#433);
#388=PLANE('',#434);
#389=PLANE('',#435);
#390=PLANE('',#445);
#391=PLANE('',#455);
#392=PLANE('',#457);
#393=PLANE('',#459);
#394=PLANE('',#461);
#395=PLANE('',#464);
#396=PLANE('',#465);
#397=ADVANCED_FACE('',(#357),#385,.T.);
#398=ADVANCED_FACE('',(#358),#386,.T.);
#399=ADVANCED_FACE('',(#359),#387,.T.);
#400=ADVANCED_FACE('',(#360),#388,.T.);
#401=ADVANCED_FACE('',(#361,#362,#363,#364),#389,.F.);
#402=ADVANCED_FACE('',(#365,#366,#367,#368),#390,.T.);
#403=ADVANCED_FACE('',(#369),#391,.T.);
#404=ADVANCED_FACE('',(#370),#20,.F.);
#405=ADVANCED_FACE('',(#371),#392,.T.);
#406=ADVANCED_FACE('',(#372),#21,.F.);
#407=ADVANCED_FACE('',(#373),#393,.F.);
#408=ADVANCED_FACE('',(#374),#22,.F.);
#409=ADVANCED_FACE('',(#375),#394,.F.);
#410=ADVANCED_FACE('',(#376),#23,.F.);
#411=ADVANCED_FACE('',(#377,#378),#24,.F.);
#412=ADVANCED_FACE('',(#379),#395,.T.);
#413=ADVANCED_FACE('',(#380),#396,.T.);
#414=ADVANCED_FACE('',(#381),#25,.T.);
#415=ADVANCED_FACE('',(#382),#26,.T.);
#416=ADVANCED_FACE('',(#383),#27,.T.);
#417=ADVANCED_FACE('',(#384),#28,.T.);
#418=CLOSED_SHELL('',(#397,#398,#399,#400,#401,#402,#403,#404,#405,#406,
#407,#408,#409,#410,#411,#412,#413,#414,#415,#416,#417));
#419=STYLED_ITEM('',(#420),#427);
#420=PRESENTATION_STYLE_ASSIGNMENT((#421));
#421=SURFACE_STYLE_USAGE(.BOTH.,#422);
#422=SURFACE_SIDE_STYLE('',(#423));
#423=SURFACE_STYLE_FILL_AREA(#424);
#424=FILL_AREA_STYLE('',(#425));
#425=FILL_AREA_STYLE_COLOUR('',#426);
#426=COLOUR_RGB('',0.699999988079071,0.699999988079071,0.699999988079071);
#427=MANIFOLD_SOLID_BREP('',#418);
#428=SHAPE_DEFINITION_REPRESENTATION(#710,#429);
#429=SHAPE_REPRESENTATION('À2.041 Êðîíøòåéí ÊÏ-Ì18-Ñ',(#430),#705);
#430=AXIS2_PLACEMENT_3D('',#588,#470,#471);
#431=AXIS2_PLACEMENT_3D('',#589,#472,#473);
#432=AXIS2_PLACEMENT_3D('',#598,#478,#479);
#433=AXIS2_PLACEMENT_3D('',#607,#484,#485);
#434=AXIS2_PLACEMENT_3D('',#616,#490,#491);
#435=AXIS2_PLACEMENT_3D('',#625,#496,#497);
#436=AXIS2_PLACEMENT_3D('',#626,#498,#499);
#437=AXIS2_PLACEMENT_3D('',#628,#500,#501);
#438=AXIS2_PLACEMENT_3D('',#633,#503,#504);
#439=AXIS2_PLACEMENT_3D('',#639,#507,#508);
#440=AXIS2_PLACEMENT_3D('',#643,#510,#511);
#441=AXIS2_PLACEMENT_3D('',#644,#512,#513);
#442=AXIS2_PLACEMENT_3D('',#645,#514,#515);
#443=AXIS2_PLACEMENT_3D('',#648,#517,#518);
#444=AXIS2_PLACEMENT_3D('',#649,#519,#520);
#445=AXIS2_PLACEMENT_3D('',#652,#522,#523);
#446=AXIS2_PLACEMENT_3D('',#653,#524,#525);
#447=AXIS2_PLACEMENT_3D('',#656,#527,#528);
#448=AXIS2_PLACEMENT_3D('',#657,#529,#530);
#449=AXIS2_PLACEMENT_3D('',#660,#532,#533);
#450=AXIS2_PLACEMENT_3D('',#661,#534,#535);
#451=AXIS2_PLACEMENT_3D('',#666,#537,#538);
#452=AXIS2_PLACEMENT_3D('',#670,#540,#541);
#453=AXIS2_PLACEMENT_3D('',#671,#542,#543);
#454=AXIS2_PLACEMENT_3D('',#676,#545,#546);
#455=AXIS2_PLACEMENT_3D('',#679,#548,#549);
#456=AXIS2_PLACEMENT_3D('',#682,#552,#553);
#457=AXIS2_PLACEMENT_3D('',#684,#555,#556);
#458=AXIS2_PLACEMENT_3D('',#686,#558,#559);
#459=AXIS2_PLACEMENT_3D('',#687,#560,#561);
#460=AXIS2_PLACEMENT_3D('',#690,#564,#565);
#461=AXIS2_PLACEMENT_3D('',#692,#567,#568);
#462=AXIS2_PLACEMENT_3D('',#694,#570,#571);
#463=AXIS2_PLACEMENT_3D('',#695,#572,#573);
#464=AXIS2_PLACEMENT_3D('',#696,#574,#575);
#465=AXIS2_PLACEMENT_3D('',#698,#577,#578);
#466=AXIS2_PLACEMENT_3D('',#700,#580,#581);
#467=AXIS2_PLACEMENT_3D('',#701,#582,#583);
#468=AXIS2_PLACEMENT_3D('',#702,#584,#585);
#469=AXIS2_PLACEMENT_3D('',#703,#586,#587);
#470=DIRECTION('',(0.,0.,1.));
#471=DIRECTION('',(1.,0.,0.));
#472=DIRECTION('',(1.,0.,0.));
#473=DIRECTION('',(0.,0.,-1.));
#474=DIRECTION('',(0.,-1.,0.));
#475=DIRECTION('',(0.,0.,-1.));
#476=DIRECTION('',(0.,-1.,0.));
#477=DIRECTION('',(0.,0.,-1.));
#478=DIRECTION('',(-1.5419764230905E-16,-1.,0.));
#479=DIRECTION('',(1.,-1.5419764230905E-16,0.));
#480=DIRECTION('',(-1.,1.5419764230905E-16,0.));
#481=DIRECTION('',(0.,0.,-1.));
#482=DIRECTION('',(-1.,1.5419764230905E-16,0.));
#483=DIRECTION('',(0.,0.,-1.));
#484=DIRECTION('',(-1.,0.,0.));
#485=DIRECTION('',(0.,0.,1.));
#486=DIRECTION('',(0.,1.,0.));
#487=DIRECTION('',(0.,0.,-1.));
#488=DIRECTION('',(0.,1.,0.));
#489=DIRECTION('',(0.,0.,-1.));
#490=DIRECTION('',(1.5419764230905E-16,1.,0.));
#491=DIRECTION('',(-1.,1.5419764230905E-16,0.));
#492=DIRECTION('',(1.,-1.5419764230905E-16,0.));
#493=DIRECTION('',(0.,0.,1.));
#494=DIRECTION('',(1.,-1.5419764230905E-16,0.));
#495=DIRECTION('',(0.,0.,1.));
#496=DIRECTION('',(0.,0.,-1.));
#497=DIRECTION('',(-1.,0.,0.));
#498=DIRECTION('',(0.,0.,-1.));
#499=DIRECTION('',(1.,-1.5419764230905E-16,0.));
#500=DIRECTION('',(0.,0.,1.));
#501=DIRECTION('',(-1.,1.5419764230905E-16,0.));
#502=DIRECTION('',(5.39691748081674E-17,-1.,0.));
#503=DIRECTION('',(0.,0.,1.));
#504=DIRECTION('',(1.,-1.5419764230905E-16,0.));
#505=DIRECTION('',(5.70531276543483E-16,1.,0.));
#506=DIRECTION('',(-4.00913870003529E-16,1.,0.));
#507=DIRECTION('',(0.,0.,-1.));
#508=DIRECTION('',(-1.,1.5419764230905E-16,0.));
#509=DIRECTION('',(-1.54197642309049E-17,-1.,0.));
#510=DIRECTION('',(0.,0.,-1.));
#511=DIRECTION('',(1.,-1.5419764230905E-16,0.));
#512=DIRECTION('',(0.,0.,-1.));
#513=DIRECTION('',(-1.,0.,0.));
#514=DIRECTION('',(0.,0.,-1.));
#515=DIRECTION('',(-1.,0.,0.));
#516=DIRECTION('',(0.207911690817759,-0.978147600733806,0.));
#517=DIRECTION('',(0.,0.,-1.));
#518=DIRECTION('',(-1.,0.,0.));
#519=DIRECTION('',(0.,0.,-1.));
#520=DIRECTION('',(-1.,0.,0.));
#521=DIRECTION('',(0.207911690817759,0.978147600733806,0.));
#522=DIRECTION('',(0.,0.,-1.));
#523=DIRECTION('',(-1.,0.,0.));
#524=DIRECTION('',(0.,0.,-1.));
#525=DIRECTION('',(-1.,0.,0.));
#526=DIRECTION('',(0.207911690817759,0.978147600733806,0.));
#527=DIRECTION('',(0.,0.,-1.));
#528=DIRECTION('',(-1.,0.,0.));
#529=DIRECTION('',(0.,0.,-1.));
#530=DIRECTION('',(-1.,0.,0.));
#531=DIRECTION('',(0.207911690817759,-0.978147600733806,0.));
#532=DIRECTION('',(0.,0.,-1.));
#533=DIRECTION('',(-1.,0.,0.));
#534=DIRECTION('',(0.,0.,-1.));
#535=DIRECTION('',(-1.,0.,0.));
#536=DIRECTION('',(-5.39691748081674E-17,1.,0.));
#537=DIRECTION('',(0.,0.,-1.));
#538=DIRECTION('',(-1.,0.,0.));
#539=DIRECTION('',(-5.70531276543483E-16,-1.,0.));
#540=DIRECTION('',(0.,0.,-1.));
#541=DIRECTION('',(-1.,0.,0.));
#542=DIRECTION('',(0.,0.,-1.));
#543=DIRECTION('',(-1.,0.,0.));
#544=DIRECTION('',(4.00913870003529E-16,-1.,0.));
#545=DIRECTION('',(0.,0.,-1.));
#546=DIRECTION('',(-1.,0.,0.));
#547=DIRECTION('',(1.54197642309049E-17,1.,0.));
#548=DIRECTION('',(1.,4.00913870003529E-16,0.));
#549=DIRECTION('',(-4.00913870003529E-16,1.,0.));
#550=DIRECTION('',(0.,0.,1.));
#551=DIRECTION('',(0.,0.,1.));
#552=DIRECTION('',(0.,0.,1.));
#553=DIRECTION('',(1.,0.,0.));
#554=DIRECTION('',(0.,0.,1.));
#555=DIRECTION('',(-1.,1.54197642309049E-17,0.));
#556=DIRECTION('',(-1.54197642309049E-17,-1.,0.));
#557=DIRECTION('',(0.,0.,1.));
#558=DIRECTION('',(0.,0.,1.));
#559=DIRECTION('',(1.,0.,0.));
#560=DIRECTION('',(-1.,-5.39691748081674E-17,0.));
#561=DIRECTION('',(5.39691748081674E-17,-1.,0.));
#562=DIRECTION('',(0.,0.,1.));
#563=DIRECTION('',(0.,0.,1.));
#564=DIRECTION('',(0.,0.,1.));
#565=DIRECTION('',(1.,0.,0.));
#566=DIRECTION('',(0.,0.,1.));
#567=DIRECTION('',(1.,-5.70531276543483E-16,0.));
#568=DIRECTION('',(5.70531276543483E-16,1.,0.));
#569=DIRECTION('',(0.,0.,1.));
#570=DIRECTION('',(0.,0.,1.));
#571=DIRECTION('',(1.,0.,0.));
#572=DIRECTION('',(0.,0.,1.));
#573=DIRECTION('',(1.,0.,0.));
#574=DIRECTION('',(-0.978147600733806,0.207911690817759,0.));
#575=DIRECTION('',(0.207911690817759,0.978147600733806,0.));
#576=DIRECTION('',(0.,0.,-1.));
#577=DIRECTION('',(0.978147600733806,0.207911690817759,0.));
#578=DIRECTION('',(0.207911690817759,-0.978147600733806,0.));
#579=DIRECTION('',(0.,0.,-1.));
#580=DIRECTION('',(0.,0.,-1.));
#581=DIRECTION('',(-1.,0.,0.));
#582=DIRECTION('',(0.,0.,-1.));
#583=DIRECTION('',(-1.,0.,0.));
#584=DIRECTION('',(0.,0.,-1.));
#585=DIRECTION('',(-1.,0.,0.));
#586=DIRECTION('',(0.,0.,-1.));
#587=DIRECTION('',(-1.,0.,0.));
#588=CARTESIAN_POINT('',(0.,0.,0.));
#589=CARTESIAN_POINT('',(22.5,40.,2.));
#590=CARTESIAN_POINT('',(22.5,40.,2.));
#591=CARTESIAN_POINT('',(22.5,6.00000000000006,2.));
#592=CARTESIAN_POINT('',(22.5,-24.,2.));
#593=CARTESIAN_POINT('',(22.5,-24.,2.));
#594=CARTESIAN_POINT('',(22.5,-24.,0.));
#595=CARTESIAN_POINT('',(22.5,40.,0.));
#596=CARTESIAN_POINT('',(22.5,6.00000000000006,0.));
#597=CARTESIAN_POINT('',(22.5,6.00000000000006,0.));
#598=CARTESIAN_POINT('',(22.5,-30.,2.));
#599=CARTESIAN_POINT('',(22.5,-30.,2.));
#600=CARTESIAN_POINT('',(16.5,-30.,2.));
#601=CARTESIAN_POINT('',(-16.5,-30.,2.));
#602=CARTESIAN_POINT('',(-16.5,-30.,2.));
#603=CARTESIAN_POINT('',(-16.5,-30.,0.));
#604=CARTESIAN_POINT('',(22.5,-30.,0.));
#605=CARTESIAN_POINT('',(16.5,-30.,0.));
#606=CARTESIAN_POINT('',(16.5,-30.,2.));
#607=CARTESIAN_POINT('',(-22.5,-30.,2.));
#608=CARTESIAN_POINT('',(-22.5,-30.,0.));
#609=CARTESIAN_POINT('',(-22.5,-24.,0.));
#610=CARTESIAN_POINT('',(-22.5,5.99999999999992,0.));
#611=CARTESIAN_POINT('',(-22.5,-24.,2.));
#612=CARTESIAN_POINT('',(-22.5,-24.,2.));
#613=CARTESIAN_POINT('',(-22.5,-30.,2.));
#614=CARTESIAN_POINT('',(-22.5,5.99999999999992,2.));
#615=CARTESIAN_POINT('',(-22.5,5.99999999999992,0.));
#616=CARTESIAN_POINT('',(-22.5,40.,2.));
#617=CARTESIAN_POINT('',(-22.5,40.,0.));
#618=CARTESIAN_POINT('',(-10.4143727040492,40.,0.));
#619=CARTESIAN_POINT('',(10.4143727040492,40.,0.));
#620=CARTESIAN_POINT('',(-10.4143727040492,40.,2.));
#621=CARTESIAN_POINT('',(-10.4143727040492,40.,2.));
#622=CARTESIAN_POINT('',(-22.5,40.,2.));
#623=CARTESIAN_POINT('',(10.4143727040492,40.,2.));
#624=CARTESIAN_POINT('',(10.4143727040492,40.,0.));
#625=CARTESIAN_POINT('',(0.,0.,2.));
#626=CARTESIAN_POINT('',(2.13820195408868E-15,23.,2.));
#627=CARTESIAN_POINT('',(9.05,23.,2.));
#628=CARTESIAN_POINT('',(12.5,-24.,2.));
#629=CARTESIAN_POINT('',(9.30000000000002,-24.,2.));
#630=CARTESIAN_POINT('',(15.7,-24.,2.));
#631=CARTESIAN_POINT('',(9.30000000000002,0.999999999999998,2.));
#632=CARTESIAN_POINT('',(9.30000000000002,1.,2.));
#633=CARTESIAN_POINT('',(12.5,0.999999999999999,2.));
#634=CARTESIAN_POINT('',(15.7,1.,2.));
#635=CARTESIAN_POINT('',(15.7,-24.,2.));
#636=CARTESIAN_POINT('',(-15.7,-24.,2.));
#637=CARTESIAN_POINT('',(-15.7,-24.,2.));
#638=CARTESIAN_POINT('',(-15.7,1.,2.));
#639=CARTESIAN_POINT('',(-12.5,0.999999999999999,2.));
#640=CARTESIAN_POINT('',(-9.30000000000002,0.999999999999999,2.));
#641=CARTESIAN_POINT('',(-9.30000000000002,1.,2.));
#642=CARTESIAN_POINT('',(-9.30000000000002,-24.,2.));
#643=CARTESIAN_POINT('',(-12.5,-24.,2.));
#644=CARTESIAN_POINT('',(-16.5,-24.,2.));
#645=CARTESIAN_POINT('',(16.5,-24.,2.));
#646=CARTESIAN_POINT('',(22.7475963277067,4.83515086167495,2.));
#647=CARTESIAN_POINT('',(16.283258308452,35.2474701449066,2.));
#648=CARTESIAN_POINT('',(10.4143727040492,34.,2.));
#649=CARTESIAN_POINT('',(-10.4143727040492,34.,2.));
#650=CARTESIAN_POINT('',(-16.2832583084521,35.2474701449066,2.));
#651=CARTESIAN_POINT('',(-22.7475963277067,4.83515086167494,2.));
#652=CARTESIAN_POINT('',(0.,0.,0.));
#653=CARTESIAN_POINT('',(-16.5,-24.,0.));
#654=CARTESIAN_POINT('',(-22.7475963277067,4.83515086167494,0.));
#655=CARTESIAN_POINT('',(-16.2832583084521,35.2474701449066,0.));
#656=CARTESIAN_POINT('',(-10.4143727040492,34.,0.));
#657=CARTESIAN_POINT('',(10.4143727040492,34.,0.));
#658=CARTESIAN_POINT('',(16.283258308452,35.2474701449066,0.));
#659=CARTESIAN_POINT('',(22.7475963277067,4.83515086167495,0.));
#660=CARTESIAN_POINT('',(16.5,-24.,0.));
#661=CARTESIAN_POINT('',(2.13820195408868E-15,23.,0.));
#662=CARTESIAN_POINT('',(-9.05,23.,0.));
#663=CARTESIAN_POINT('',(9.30000000000002,5.01913325715958E-16,0.));
#664=CARTESIAN_POINT('',(9.30000000000002,-24.,0.));
#665=CARTESIAN_POINT('',(9.30000000000002,0.999999999999999,0.));
#666=CARTESIAN_POINT('',(12.5,-24.,0.));
#667=CARTESIAN_POINT('',(15.7,-24.,0.));
#668=CARTESIAN_POINT('',(15.7,-8.9573410417327E-15,0.));
#669=CARTESIAN_POINT('',(15.7,1.,0.));
#670=CARTESIAN_POINT('',(12.5,0.999999999999999,0.));
#671=CARTESIAN_POINT('',(-12.5,0.999999999999999,0.));
#672=CARTESIAN_POINT('',(-9.30000000000002,0.999999999999999,0.));
#673=CARTESIAN_POINT('',(-15.7,1.,0.));
#674=CARTESIAN_POINT('',(-15.7,-6.29434775905541E-15,0.));
#675=CARTESIAN_POINT('',(-15.7,-24.,0.));
#676=CARTESIAN_POINT('',(-12.5,-24.,0.));
#677=CARTESIAN_POINT('',(-9.30000000000003,-24.,0.));
#678=CARTESIAN_POINT('',(-9.30000000000002,1.43403807347416E-16,0.));
#679=CARTESIAN_POINT('',(-15.7,-24.,-23.041301947906));
#680=CARTESIAN_POINT('',(-15.7,1.,-23.041301947906));
#681=CARTESIAN_POINT('',(-15.7,-24.,-23.041301947906));
#682=CARTESIAN_POINT('',(-12.5,0.999999999999999,-23.041301947906));
#683=CARTESIAN_POINT('',(-9.30000000000002,0.999999999999999,-23.041301947906));
#684=CARTESIAN_POINT('',(-9.30000000000002,1.,-23.041301947906));
#685=CARTESIAN_POINT('',(-9.30000000000002,-24.,-23.041301947906));
#686=CARTESIAN_POINT('',(-12.5,-24.,-23.041301947906));
#687=CARTESIAN_POINT('',(9.30000000000002,0.999999999999998,-23.041301947906));
#688=CARTESIAN_POINT('',(9.30000000000002,1.,-23.041301947906));
#689=CARTESIAN_POINT('',(9.30000000000002,-24.,-23.041301947906));
#690=CARTESIAN_POINT('',(12.5,-24.,-23.041301947906));
#691=CARTESIAN_POINT('',(15.7,-24.,-23.041301947906));
#692=CARTESIAN_POINT('',(15.7,-24.,-23.041301947906));
#693=CARTESIAN_POINT('',(15.7,1.,-23.041301947906));
#694=CARTESIAN_POINT('',(12.5,0.999999999999999,-23.041301947906));
#695=CARTESIAN_POINT('',(2.13820195408868E-15,23.,-8.19848885513931));
#696=CARTESIAN_POINT('',(-22.7475963277067,4.83515086167494,0.));
#697=CARTESIAN_POINT('',(-16.2832583084521,35.2474701449066,0.));
#698=CARTESIAN_POINT('',(22.7475963277067,4.83515086167495,0.));
#699=CARTESIAN_POINT('',(16.283258308452,35.2474701449066,2.));
#700=CARTESIAN_POINT('',(10.4143727040492,34.,2.));
#701=CARTESIAN_POINT('',(-10.4143727040492,34.,0.));
#702=CARTESIAN_POINT('',(16.5,-24.,2.));
#703=CARTESIAN_POINT('',(-16.5,-24.,2.));
#704=MECHANICAL_DESIGN_GEOMETRIC_PRESENTATION_REPRESENTATION('',(#419),
#705);
#705=(
GEOMETRIC_REPRESENTATION_CONTEXT(3)
GLOBAL_UNCERTAINTY_ASSIGNED_CONTEXT((#706))
GLOBAL_UNIT_ASSIGNED_CONTEXT((#709,#708,#707))
REPRESENTATION_CONTEXT('À2.041 Êðîíøòåéí ÊÏ-Ì18-Ñ',
'TOP_LEVEL_ASSEMBLY_PART')
);
#706=UNCERTAINTY_MEASURE_WITH_UNIT(LENGTH_MEASURE(0.005),#709,
'DISTANCE_ACCURACY_VALUE','Maximum Tolerance applied to model');
#707=(
NAMED_UNIT(*)
SI_UNIT($,.STERADIAN.)
SOLID_ANGLE_UNIT()
);
#708=(
NAMED_UNIT(*)
PLANE_ANGLE_UNIT()
SI_UNIT($,.RADIAN.)
);
#709=(
LENGTH_UNIT()
NAMED_UNIT(*)
SI_UNIT(.MILLI.,.METRE.)
);
#710=PRODUCT_DEFINITION_SHAPE('','',#711);
#711=PRODUCT_DEFINITION('','',#713,#712);
#712=PRODUCT_DEFINITION_CONTEXT('',#719,'design');
#713=PRODUCT_DEFINITION_FORMATION_WITH_SPECIFIED_SOURCE('','',#715,
 .NOT_KNOWN.);
#714=PRODUCT_RELATED_PRODUCT_CATEGORY('','',(#715));
#715=PRODUCT('À2.041 Êðîíøòåéí ÊÏ-Ì18-Ñ','À2.041 Êðîíøòåéí ÊÏ-Ì18-Ñ',
'À2.041 Êðîíøòåéí ÊÏ-Ì18-Ñ',(#717));
#716=PRODUCT_CATEGORY('','');
#717=PRODUCT_CONTEXT('',#719,'mechanical');
#718=APPLICATION_PROTOCOL_DEFINITION('international standard',
'automotive_design',2010,#719);
#719=APPLICATION_CONTEXT(
'core data for automotive mechanical design processes');
ENDSEC;
END-ISO-10303-21;
