ISO-10303-21;
HEADER;
/* Generated by software containing ST-Developer
 * from STEP Tools, Inc. (www.steptools.com) 
 */
/* OPTION: strings as raw bytes, not using required /X/ escapes */

FILE_DESCRIPTION(
/* description */ ('Unknown'),
/* implementation_level */ '2;1');

FILE_NAME(
/* name */ '_PV-KP-M08-S',
/* time_stamp */ '2021-01-18T17:42:02+05:00',
/* author */ ('Unknown'),
/* organization */ ('Unknown'),
/* preprocessor_version */ 'ST-DEVELOPER v16.7',
/* originating_system */ 'Solid Edge',
/* authorisation */ 'Unknown');

FILE_SCHEMA (('AUTOMOTIVE_DESIGN {1 0 10303 214 3 1 1}'));
ENDSEC;

DATA;
#10=PROPERTY_DEFINITION_REPRESENTATION(#14,#12);
#11=PROPERTY_DEFINITION_REPRESENTATION(#15,#13);
#12=REPRESENTATION('',(#16),#705);
#13=REPRESENTATION('',(#17),#705);
#14=PROPERTY_DEFINITION('pmi validation property','',#710);
#15=PROPERTY_DEFINITION('pmi validation property','',#710);
#16=VALUE_REPRESENTATION_ITEM('number of annotations',COUNT_MEASURE(0.));
#17=VALUE_REPRESENTATION_ITEM('number of views',COUNT_MEASURE(0.));
#18=SHAPE_REPRESENTATION_RELATIONSHIP('','',#429,#19);
#19=ADVANCED_BREP_SHAPE_REPRESENTATION('',(#427),#705);
#20=CYLINDRICAL_SURFACE('',#457,5.);
#21=CYLINDRICAL_SURFACE('',#458,5.);
#22=CYLINDRICAL_SURFACE('',#459,5.);
#23=CYLINDRICAL_SURFACE('',#460,5.);
#24=CYLINDRICAL_SURFACE('',#461,4.05);
#25=CYLINDRICAL_SURFACE('',#462,2.1);
#26=CYLINDRICAL_SURFACE('',#464,2.1);
#27=CYLINDRICAL_SURFACE('',#467,2.1);
#28=CYLINDRICAL_SURFACE('',#469,2.1);
#29=LINE('',#593,#67);
#30=LINE('',#597,#68);
#31=LINE('',#598,#69);
#32=LINE('',#603,#70);
#33=LINE('',#607,#71);
#34=LINE('',#609,#72);
#35=LINE('',#613,#73);
#36=LINE('',#617,#74);
#37=LINE('',#623,#75);
#38=LINE('',#627,#76);
#39=LINE('',#629,#77);
#40=LINE('',#634,#78);
#41=LINE('',#639,#79);
#42=LINE('',#644,#80);
#43=LINE('',#646,#81);
#44=LINE('',#650,#82);
#45=LINE('',#654,#83);
#46=LINE('',#656,#84);
#47=LINE('',#659,#85);
#48=LINE('',#664,#86);
#49=LINE('',#668,#87);
#50=LINE('',#669,#88);
#51=LINE('',#671,#89);
#52=LINE('',#672,#90);
#53=LINE('',#674,#91);
#54=LINE('',#676,#92);
#55=LINE('',#677,#93);
#56=LINE('',#679,#94);
#57=LINE('',#680,#95);
#58=LINE('',#682,#96);
#59=LINE('',#689,#97);
#60=LINE('',#690,#98);
#61=LINE('',#692,#99);
#62=LINE('',#694,#100);
#63=LINE('',#697,#101);
#64=LINE('',#698,#102);
#65=LINE('',#700,#103);
#66=LINE('',#702,#104);
#67=VECTOR('',#476,1000.);
#68=VECTOR('',#479,1000.);
#69=VECTOR('',#480,1000.);
#70=VECTOR('',#483,1000.);
#71=VECTOR('',#486,1000.);
#72=VECTOR('',#487,1000.);
#73=VECTOR('',#490,1000.);
#74=VECTOR('',#493,1000.);
#75=VECTOR('',#498,1000.);
#76=VECTOR('',#501,1000.);
#77=VECTOR('',#504,1000.);
#78=VECTOR('',#507,1000.);
#79=VECTOR('',#512,1000.);
#80=VECTOR('',#515,1000.);
#81=VECTOR('',#516,1000.);
#82=VECTOR('',#519,1000.);
#83=VECTOR('',#522,1000.);
#84=VECTOR('',#523,1000.);
#85=VECTOR('',#526,1000.);
#86=VECTOR('',#529,1000.);
#87=VECTOR('',#534,1000.);
#88=VECTOR('',#535,1000.);
#89=VECTOR('',#538,1000.);
#90=VECTOR('',#539,1000.);
#91=VECTOR('',#542,1000.);
#92=VECTOR('',#545,1000.);
#93=VECTOR('',#546,1000.);
#94=VECTOR('',#549,1000.);
#95=VECTOR('',#550,1000.);
#96=VECTOR('',#553,1000.);
#97=VECTOR('',#566,1000.);
#98=VECTOR('',#567,1000.);
#99=VECTOR('',#570,1000.);
#100=VECTOR('',#573,1000.);
#101=VECTOR('',#578,1000.);
#102=VECTOR('',#579,1000.);
#103=VECTOR('',#582,1000.);
#104=VECTOR('',#585,1000.);
#105=ORIENTED_EDGE('',*,*,#217,.F.);
#106=ORIENTED_EDGE('',*,*,#218,.F.);
#107=ORIENTED_EDGE('',*,*,#219,.F.);
#108=ORIENTED_EDGE('',*,*,#220,.F.);
#109=ORIENTED_EDGE('',*,*,#221,.F.);
#110=ORIENTED_EDGE('',*,*,#222,.T.);
#111=ORIENTED_EDGE('',*,*,#223,.F.);
#112=ORIENTED_EDGE('',*,*,#224,.T.);
#113=ORIENTED_EDGE('',*,*,#225,.F.);
#114=ORIENTED_EDGE('',*,*,#226,.F.);
#115=ORIENTED_EDGE('',*,*,#227,.T.);
#116=ORIENTED_EDGE('',*,*,#228,.F.);
#117=ORIENTED_EDGE('',*,*,#229,.T.);
#118=ORIENTED_EDGE('',*,*,#230,.F.);
#119=ORIENTED_EDGE('',*,*,#231,.T.);
#120=ORIENTED_EDGE('',*,*,#232,.T.);
#121=ORIENTED_EDGE('',*,*,#233,.T.);
#122=ORIENTED_EDGE('',*,*,#234,.T.);
#123=ORIENTED_EDGE('',*,*,#235,.T.);
#124=ORIENTED_EDGE('',*,*,#236,.F.);
#125=ORIENTED_EDGE('',*,*,#237,.F.);
#126=ORIENTED_EDGE('',*,*,#238,.F.);
#127=ORIENTED_EDGE('',*,*,#239,.F.);
#128=ORIENTED_EDGE('',*,*,#240,.T.);
#129=ORIENTED_EDGE('',*,*,#241,.T.);
#130=ORIENTED_EDGE('',*,*,#242,.T.);
#131=ORIENTED_EDGE('',*,*,#243,.T.);
#132=ORIENTED_EDGE('',*,*,#244,.T.);
#133=ORIENTED_EDGE('',*,*,#245,.T.);
#134=ORIENTED_EDGE('',*,*,#246,.T.);
#135=ORIENTED_EDGE('',*,*,#247,.T.);
#136=ORIENTED_EDGE('',*,*,#248,.T.);
#137=ORIENTED_EDGE('',*,*,#249,.T.);
#138=ORIENTED_EDGE('',*,*,#250,.T.);
#139=ORIENTED_EDGE('',*,*,#251,.T.);
#140=ORIENTED_EDGE('',*,*,#252,.T.);
#141=ORIENTED_EDGE('',*,*,#253,.T.);
#142=ORIENTED_EDGE('',*,*,#254,.T.);
#143=ORIENTED_EDGE('',*,*,#223,.T.);
#144=ORIENTED_EDGE('',*,*,#255,.T.);
#145=ORIENTED_EDGE('',*,*,#241,.F.);
#146=ORIENTED_EDGE('',*,*,#256,.T.);
#147=ORIENTED_EDGE('',*,*,#243,.F.);
#148=ORIENTED_EDGE('',*,*,#257,.T.);
#149=ORIENTED_EDGE('',*,*,#221,.T.);
#150=ORIENTED_EDGE('',*,*,#258,.T.);
#151=ORIENTED_EDGE('',*,*,#230,.T.);
#152=ORIENTED_EDGE('',*,*,#259,.T.);
#153=ORIENTED_EDGE('',*,*,#244,.F.);
#154=ORIENTED_EDGE('',*,*,#258,.F.);
#155=ORIENTED_EDGE('',*,*,#246,.F.);
#156=ORIENTED_EDGE('',*,*,#260,.T.);
#157=ORIENTED_EDGE('',*,*,#228,.T.);
#158=ORIENTED_EDGE('',*,*,#261,.T.);
#159=ORIENTED_EDGE('',*,*,#248,.F.);
#160=ORIENTED_EDGE('',*,*,#262,.T.);
#161=ORIENTED_EDGE('',*,*,#226,.T.);
#162=ORIENTED_EDGE('',*,*,#263,.T.);
#163=ORIENTED_EDGE('',*,*,#225,.T.);
#164=ORIENTED_EDGE('',*,*,#264,.T.);
#165=ORIENTED_EDGE('',*,*,#249,.F.);
#166=ORIENTED_EDGE('',*,*,#263,.F.);
#167=ORIENTED_EDGE('',*,*,#227,.F.);
#168=ORIENTED_EDGE('',*,*,#262,.F.);
#169=ORIENTED_EDGE('',*,*,#247,.F.);
#170=ORIENTED_EDGE('',*,*,#261,.F.);
#171=ORIENTED_EDGE('',*,*,#229,.F.);
#172=ORIENTED_EDGE('',*,*,#260,.F.);
#173=ORIENTED_EDGE('',*,*,#245,.F.);
#174=ORIENTED_EDGE('',*,*,#259,.F.);
#175=ORIENTED_EDGE('',*,*,#224,.F.);
#176=ORIENTED_EDGE('',*,*,#256,.F.);
#177=ORIENTED_EDGE('',*,*,#250,.F.);
#178=ORIENTED_EDGE('',*,*,#264,.F.);
#179=ORIENTED_EDGE('',*,*,#222,.F.);
#180=ORIENTED_EDGE('',*,*,#257,.F.);
#181=ORIENTED_EDGE('',*,*,#242,.F.);
#182=ORIENTED_EDGE('',*,*,#255,.F.);
#183=ORIENTED_EDGE('',*,*,#240,.F.);
#184=ORIENTED_EDGE('',*,*,#231,.F.);
#185=ORIENTED_EDGE('',*,*,#265,.T.);
#186=ORIENTED_EDGE('',*,*,#232,.F.);
#187=ORIENTED_EDGE('',*,*,#266,.F.);
#188=ORIENTED_EDGE('',*,*,#252,.F.);
#189=ORIENTED_EDGE('',*,*,#267,.T.);
#190=ORIENTED_EDGE('',*,*,#233,.F.);
#191=ORIENTED_EDGE('',*,*,#265,.F.);
#192=ORIENTED_EDGE('',*,*,#251,.F.);
#193=ORIENTED_EDGE('',*,*,#268,.T.);
#194=ORIENTED_EDGE('',*,*,#234,.F.);
#195=ORIENTED_EDGE('',*,*,#267,.F.);
#196=ORIENTED_EDGE('',*,*,#254,.F.);
#197=ORIENTED_EDGE('',*,*,#266,.T.);
#198=ORIENTED_EDGE('',*,*,#235,.F.);
#199=ORIENTED_EDGE('',*,*,#268,.F.);
#200=ORIENTED_EDGE('',*,*,#253,.F.);
#201=ORIENTED_EDGE('',*,*,#236,.T.);
#202=ORIENTED_EDGE('',*,*,#269,.T.);
#203=ORIENTED_EDGE('',*,*,#218,.T.);
#204=ORIENTED_EDGE('',*,*,#270,.F.);
#205=ORIENTED_EDGE('',*,*,#237,.T.);
#206=ORIENTED_EDGE('',*,*,#270,.T.);
#207=ORIENTED_EDGE('',*,*,#217,.T.);
#208=ORIENTED_EDGE('',*,*,#271,.F.);
#209=ORIENTED_EDGE('',*,*,#238,.T.);
#210=ORIENTED_EDGE('',*,*,#271,.T.);
#211=ORIENTED_EDGE('',*,*,#220,.T.);
#212=ORIENTED_EDGE('',*,*,#272,.F.);
#213=ORIENTED_EDGE('',*,*,#239,.T.);
#214=ORIENTED_EDGE('',*,*,#272,.T.);
#215=ORIENTED_EDGE('',*,*,#219,.T.);
#216=ORIENTED_EDGE('',*,*,#269,.F.);
#217=EDGE_CURVE('',#273,#274,#311,.T.);
#218=EDGE_CURVE('',#275,#273,#29,.T.);
#219=EDGE_CURVE('',#276,#275,#312,.T.);
#220=EDGE_CURVE('',#274,#276,#30,.T.);
#221=EDGE_CURVE('',#277,#278,#31,.T.);
#222=EDGE_CURVE('',#277,#279,#313,.F.);
#223=EDGE_CURVE('',#280,#279,#32,.T.);
#224=EDGE_CURVE('',#280,#281,#314,.F.);
#225=EDGE_CURVE('',#282,#281,#33,.T.);
#226=EDGE_CURVE('',#283,#282,#34,.T.);
#227=EDGE_CURVE('',#283,#284,#315,.F.);
#228=EDGE_CURVE('',#285,#284,#35,.T.);
#229=EDGE_CURVE('',#285,#286,#316,.F.);
#230=EDGE_CURVE('',#278,#286,#36,.T.);
#231=EDGE_CURVE('',#287,#287,#317,.T.);
#232=EDGE_CURVE('',#288,#289,#318,.T.);
#233=EDGE_CURVE('',#289,#290,#37,.T.);
#234=EDGE_CURVE('',#290,#291,#319,.T.);
#235=EDGE_CURVE('',#291,#288,#38,.T.);
#236=EDGE_CURVE('',#292,#293,#39,.T.);
#237=EDGE_CURVE('',#294,#292,#320,.T.);
#238=EDGE_CURVE('',#295,#294,#40,.T.);
#239=EDGE_CURVE('',#293,#295,#321,.T.);
#240=EDGE_CURVE('',#296,#296,#322,.F.);
#241=EDGE_CURVE('',#297,#298,#41,.T.);
#242=EDGE_CURVE('',#298,#299,#323,.T.);
#243=EDGE_CURVE('',#299,#300,#42,.T.);
#244=EDGE_CURVE('',#300,#301,#43,.T.);
#245=EDGE_CURVE('',#301,#302,#324,.T.);
#246=EDGE_CURVE('',#302,#303,#44,.T.);
#247=EDGE_CURVE('',#303,#304,#325,.T.);
#248=EDGE_CURVE('',#304,#305,#45,.T.);
#249=EDGE_CURVE('',#305,#306,#46,.T.);
#250=EDGE_CURVE('',#306,#297,#326,.T.);
#251=EDGE_CURVE('',#307,#308,#47,.T.);
#252=EDGE_CURVE('',#308,#309,#327,.F.);
#253=EDGE_CURVE('',#309,#310,#48,.T.);
#254=EDGE_CURVE('',#310,#307,#328,.F.);
#255=EDGE_CURVE('',#279,#298,#49,.T.);
#256=EDGE_CURVE('',#297,#280,#50,.F.);
#257=EDGE_CURVE('',#299,#277,#51,.F.);
#258=EDGE_CURVE('',#278,#300,#52,.T.);
#259=EDGE_CURVE('',#286,#301,#53,.T.);
#260=EDGE_CURVE('',#302,#285,#54,.F.);
#261=EDGE_CURVE('',#284,#303,#55,.T.);
#262=EDGE_CURVE('',#304,#283,#56,.F.);
#263=EDGE_CURVE('',#282,#305,#57,.T.);
#264=EDGE_CURVE('',#281,#306,#58,.T.);
#265=EDGE_CURVE('',#308,#289,#59,.T.);
#266=EDGE_CURVE('',#309,#288,#60,.T.);
#267=EDGE_CURVE('',#307,#290,#61,.T.);
#268=EDGE_CURVE('',#310,#291,#62,.T.);
#269=EDGE_CURVE('',#293,#275,#63,.T.);
#270=EDGE_CURVE('',#292,#273,#64,.T.);
#271=EDGE_CURVE('',#294,#274,#65,.T.);
#272=EDGE_CURVE('',#295,#276,#66,.T.);
#273=VERTEX_POINT('',#591);
#274=VERTEX_POINT('',#592);
#275=VERTEX_POINT('',#594);
#276=VERTEX_POINT('',#596);
#277=VERTEX_POINT('',#599);
#278=VERTEX_POINT('',#600);
#279=VERTEX_POINT('',#602);
#280=VERTEX_POINT('',#604);
#281=VERTEX_POINT('',#606);
#282=VERTEX_POINT('',#608);
#283=VERTEX_POINT('',#610);
#284=VERTEX_POINT('',#612);
#285=VERTEX_POINT('',#614);
#286=VERTEX_POINT('',#616);
#287=VERTEX_POINT('',#619);
#288=VERTEX_POINT('',#621);
#289=VERTEX_POINT('',#622);
#290=VERTEX_POINT('',#624);
#291=VERTEX_POINT('',#626);
#292=VERTEX_POINT('',#630);
#293=VERTEX_POINT('',#631);
#294=VERTEX_POINT('',#633);
#295=VERTEX_POINT('',#635);
#296=VERTEX_POINT('',#638);
#297=VERTEX_POINT('',#640);
#298=VERTEX_POINT('',#641);
#299=VERTEX_POINT('',#643);
#300=VERTEX_POINT('',#645);
#301=VERTEX_POINT('',#647);
#302=VERTEX_POINT('',#649);
#303=VERTEX_POINT('',#651);
#304=VERTEX_POINT('',#653);
#305=VERTEX_POINT('',#655);
#306=VERTEX_POINT('',#657);
#307=VERTEX_POINT('',#660);
#308=VERTEX_POINT('',#661);
#309=VERTEX_POINT('',#663);
#310=VERTEX_POINT('',#665);
#311=CIRCLE('',#432,2.1);
#312=CIRCLE('',#433,2.1);
#313=CIRCLE('',#434,5.);
#314=CIRCLE('',#435,5.);
#315=CIRCLE('',#436,5.);
#316=CIRCLE('',#437,5.);
#317=CIRCLE('',#438,4.05);
#318=CIRCLE('',#439,2.1);
#319=CIRCLE('',#440,2.1);
#320=CIRCLE('',#442,2.1);
#321=CIRCLE('',#443,2.1);
#322=CIRCLE('',#444,4.05);
#323=CIRCLE('',#445,5.);
#324=CIRCLE('',#446,5.);
#325=CIRCLE('',#447,5.);
#326=CIRCLE('',#448,5.);
#327=CIRCLE('',#449,2.1);
#328=CIRCLE('',#450,2.1);
#329=EDGE_LOOP('',(#105,#106,#107,#108));
#330=EDGE_LOOP('',(#109,#110,#111,#112,#113,#114,#115,#116,#117,#118));
#331=EDGE_LOOP('',(#119));
#332=EDGE_LOOP('',(#120,#121,#122,#123));
#333=EDGE_LOOP('',(#124,#125,#126,#127));
#334=EDGE_LOOP('',(#128));
#335=EDGE_LOOP('',(#129,#130,#131,#132,#133,#134,#135,#136,#137,#138));
#336=EDGE_LOOP('',(#139,#140,#141,#142));
#337=EDGE_LOOP('',(#143,#144,#145,#146));
#338=EDGE_LOOP('',(#147,#148,#149,#150));
#339=EDGE_LOOP('',(#151,#152,#153,#154));
#340=EDGE_LOOP('',(#155,#156,#157,#158));
#341=EDGE_LOOP('',(#159,#160,#161,#162));
#342=EDGE_LOOP('',(#163,#164,#165,#166));
#343=EDGE_LOOP('',(#167,#168,#169,#170));
#344=EDGE_LOOP('',(#171,#172,#173,#174));
#345=EDGE_LOOP('',(#175,#176,#177,#178));
#346=EDGE_LOOP('',(#179,#180,#181,#182));
#347=EDGE_LOOP('',(#183));
#348=EDGE_LOOP('',(#184));
#349=EDGE_LOOP('',(#185,#186,#187,#188));
#350=EDGE_LOOP('',(#189,#190,#191,#192));
#351=EDGE_LOOP('',(#193,#194,#195,#196));
#352=EDGE_LOOP('',(#197,#198,#199,#200));
#353=EDGE_LOOP('',(#201,#202,#203,#204));
#354=EDGE_LOOP('',(#205,#206,#207,#208));
#355=EDGE_LOOP('',(#209,#210,#211,#212));
#356=EDGE_LOOP('',(#213,#214,#215,#216));
#357=FACE_BOUND('',#329,.T.);
#358=FACE_BOUND('',#330,.T.);
#359=FACE_BOUND('',#331,.T.);
#360=FACE_BOUND('',#332,.T.);
#361=FACE_BOUND('',#333,.T.);
#362=FACE_BOUND('',#334,.T.);
#363=FACE_BOUND('',#335,.T.);
#364=FACE_BOUND('',#336,.T.);
#365=FACE_BOUND('',#337,.T.);
#366=FACE_BOUND('',#338,.T.);
#367=FACE_BOUND('',#339,.T.);
#368=FACE_BOUND('',#340,.T.);
#369=FACE_BOUND('',#341,.T.);
#370=FACE_BOUND('',#342,.T.);
#371=FACE_BOUND('',#343,.T.);
#372=FACE_BOUND('',#344,.T.);
#373=FACE_BOUND('',#345,.T.);
#374=FACE_BOUND('',#346,.T.);
#375=FACE_BOUND('',#347,.T.);
#376=FACE_BOUND('',#348,.T.);
#377=FACE_BOUND('',#349,.T.);
#378=FACE_BOUND('',#350,.T.);
#379=FACE_BOUND('',#351,.T.);
#380=FACE_BOUND('',#352,.T.);
#381=FACE_BOUND('',#353,.T.);
#382=FACE_BOUND('',#354,.T.);
#383=FACE_BOUND('',#355,.T.);
#384=FACE_BOUND('',#356,.T.);
#385=PLANE('',#431);
#386=PLANE('',#441);
#387=PLANE('',#451);
#388=PLANE('',#452);
#389=PLANE('',#453);
#390=PLANE('',#454);
#391=PLANE('',#455);
#392=PLANE('',#456);
#393=PLANE('',#463);
#394=PLANE('',#465);
#395=PLANE('',#466);
#396=PLANE('',#468);
#397=ADVANCED_FACE('',(#357,#358,#359,#360),#385,.F.);
#398=ADVANCED_FACE('',(#361,#362,#363,#364),#386,.T.);
#399=ADVANCED_FACE('',(#365),#387,.T.);
#400=ADVANCED_FACE('',(#366),#388,.T.);
#401=ADVANCED_FACE('',(#367),#389,.T.);
#402=ADVANCED_FACE('',(#368),#390,.T.);
#403=ADVANCED_FACE('',(#369),#391,.T.);
#404=ADVANCED_FACE('',(#370),#392,.T.);
#405=ADVANCED_FACE('',(#371),#20,.T.);
#406=ADVANCED_FACE('',(#372),#21,.T.);
#407=ADVANCED_FACE('',(#373),#22,.T.);
#408=ADVANCED_FACE('',(#374),#23,.T.);
#409=ADVANCED_FACE('',(#375,#376),#24,.F.);
#410=ADVANCED_FACE('',(#377),#25,.F.);
#411=ADVANCED_FACE('',(#378),#393,.T.);
#412=ADVANCED_FACE('',(#379),#26,.F.);
#413=ADVANCED_FACE('',(#380),#394,.T.);
#414=ADVANCED_FACE('',(#381),#395,.F.);
#415=ADVANCED_FACE('',(#382),#27,.F.);
#416=ADVANCED_FACE('',(#383),#396,.F.);
#417=ADVANCED_FACE('',(#384),#28,.F.);
#418=CLOSED_SHELL('',(#397,#398,#399,#400,#401,#402,#403,#404,#405,#406,
#407,#408,#409,#410,#411,#412,#413,#414,#415,#416,#417));
#419=STYLED_ITEM('',(#420),#427);
#420=PRESENTATION_STYLE_ASSIGNMENT((#421));
#421=SURFACE_STYLE_USAGE(.BOTH.,#422);
#422=SURFACE_SIDE_STYLE('',(#423));
#423=SURFACE_STYLE_FILL_AREA(#424);
#424=FILL_AREA_STYLE('',(#425));
#425=FILL_AREA_STYLE_COLOUR('',#426);
#426=COLOUR_RGB('',0.699999988079071,0.699999988079071,0.699999988079071);
#427=MANIFOLD_SOLID_BREP('',#418);
#428=SHAPE_DEFINITION_REPRESENTATION(#710,#429);
#429=SHAPE_REPRESENTATION('À2.039 Êðîíøòåéí ÊÏ-Ì08-Ñ',(#430),#705);
#430=AXIS2_PLACEMENT_3D('',#588,#470,#471);
#431=AXIS2_PLACEMENT_3D('',#589,#472,#473);
#432=AXIS2_PLACEMENT_3D('',#590,#474,#475);
#433=AXIS2_PLACEMENT_3D('',#595,#477,#478);
#434=AXIS2_PLACEMENT_3D('',#601,#481,#482);
#435=AXIS2_PLACEMENT_3D('',#605,#484,#485);
#436=AXIS2_PLACEMENT_3D('',#611,#488,#489);
#437=AXIS2_PLACEMENT_3D('',#615,#491,#492);
#438=AXIS2_PLACEMENT_3D('',#618,#494,#495);
#439=AXIS2_PLACEMENT_3D('',#620,#496,#497);
#440=AXIS2_PLACEMENT_3D('',#625,#499,#500);
#441=AXIS2_PLACEMENT_3D('',#628,#502,#503);
#442=AXIS2_PLACEMENT_3D('',#632,#505,#506);
#443=AXIS2_PLACEMENT_3D('',#636,#508,#509);
#444=AXIS2_PLACEMENT_3D('',#637,#510,#511);
#445=AXIS2_PLACEMENT_3D('',#642,#513,#514);
#446=AXIS2_PLACEMENT_3D('',#648,#517,#518);
#447=AXIS2_PLACEMENT_3D('',#652,#520,#521);
#448=AXIS2_PLACEMENT_3D('',#658,#524,#525);
#449=AXIS2_PLACEMENT_3D('',#662,#527,#528);
#450=AXIS2_PLACEMENT_3D('',#666,#530,#531);
#451=AXIS2_PLACEMENT_3D('',#667,#532,#533);
#452=AXIS2_PLACEMENT_3D('',#670,#536,#537);
#453=AXIS2_PLACEMENT_3D('',#673,#540,#541);
#454=AXIS2_PLACEMENT_3D('',#675,#543,#544);
#455=AXIS2_PLACEMENT_3D('',#678,#547,#548);
#456=AXIS2_PLACEMENT_3D('',#681,#551,#552);
#457=AXIS2_PLACEMENT_3D('',#683,#554,#555);
#458=AXIS2_PLACEMENT_3D('',#684,#556,#557);
#459=AXIS2_PLACEMENT_3D('',#685,#558,#559);
#460=AXIS2_PLACEMENT_3D('',#686,#560,#561);
#461=AXIS2_PLACEMENT_3D('',#687,#562,#563);
#462=AXIS2_PLACEMENT_3D('',#688,#564,#565);
#463=AXIS2_PLACEMENT_3D('',#691,#568,#569);
#464=AXIS2_PLACEMENT_3D('',#693,#571,#572);
#465=AXIS2_PLACEMENT_3D('',#695,#574,#575);
#466=AXIS2_PLACEMENT_3D('',#696,#576,#577);
#467=AXIS2_PLACEMENT_3D('',#699,#580,#581);
#468=AXIS2_PLACEMENT_3D('',#701,#583,#584);
#469=AXIS2_PLACEMENT_3D('',#703,#586,#587);
#470=DIRECTION('',(0.,0.,1.));
#471=DIRECTION('',(1.,0.,0.));
#472=DIRECTION('',(0.,0.,-1.));
#473=DIRECTION('',(-1.,0.,0.));
#474=DIRECTION('',(0.,0.,1.));
#475=DIRECTION('',(1.,0.,0.));
#476=DIRECTION('',(2.89120579329468E-16,1.,0.));
#477=DIRECTION('',(0.,0.,1.));
#478=DIRECTION('',(-1.,0.,0.));
#479=DIRECTION('',(2.89120579329468E-16,-1.,0.));
#480=DIRECTION('',(0.25881904510252,-0.965925826289069,0.));
#481=DIRECTION('',(0.,0.,-1.));
#482=DIRECTION('',(-1.,0.,0.));
#483=DIRECTION('',(1.,0.,0.));
#484=DIRECTION('',(0.,0.,-1.));
#485=DIRECTION('',(-1.,0.,0.));
#486=DIRECTION('',(0.25881904510252,0.965925826289068,0.));
#487=DIRECTION('',(-1.44016217075781E-16,1.,0.));
#488=DIRECTION('',(0.,0.,-1.));
#489=DIRECTION('',(-1.,0.,0.));
#490=DIRECTION('',(-1.,0.,0.));
#491=DIRECTION('',(0.,0.,-1.));
#492=DIRECTION('',(-1.,0.,0.));
#493=DIRECTION('',(0.,-1.,0.));
#494=DIRECTION('',(0.,0.,-1.));
#495=DIRECTION('',(-1.,0.,0.));
#496=DIRECTION('',(0.,0.,-1.));
#497=DIRECTION('',(-1.,0.,0.));
#498=DIRECTION('',(-3.37307342551046E-16,-1.,0.));
#499=DIRECTION('',(0.,0.,-1.));
#500=DIRECTION('',(1.,0.,0.));
#501=DIRECTION('',(-2.89120579329468E-16,1.,0.));
#502=DIRECTION('',(0.,0.,-1.));
#503=DIRECTION('',(-1.,0.,0.));
#504=DIRECTION('',(-2.89120579329468E-16,-1.,0.));
#505=DIRECTION('',(0.,0.,-1.));
#506=DIRECTION('',(-1.,0.,0.));
#507=DIRECTION('',(-2.89120579329468E-16,1.,0.));
#508=DIRECTION('',(0.,0.,-1.));
#509=DIRECTION('',(-1.,0.,0.));
#510=DIRECTION('',(0.,0.,-1.));
#511=DIRECTION('',(-1.,0.,0.));
#512=DIRECTION('',(1.,0.,0.));
#513=DIRECTION('',(0.,0.,-1.));
#514=DIRECTION('',(-1.,0.,0.));
#515=DIRECTION('',(0.25881904510252,-0.965925826289069,0.));
#516=DIRECTION('',(0.,-1.,0.));
#517=DIRECTION('',(0.,0.,-1.));
#518=DIRECTION('',(-1.,0.,0.));
#519=DIRECTION('',(-1.,0.,0.));
#520=DIRECTION('',(0.,0.,-1.));
#521=DIRECTION('',(-1.,0.,0.));
#522=DIRECTION('',(-1.44016217075781E-16,1.,0.));
#523=DIRECTION('',(0.25881904510252,0.965925826289068,0.));
#524=DIRECTION('',(0.,0.,-1.));
#525=DIRECTION('',(-1.,0.,0.));
#526=DIRECTION('',(3.37307342551046E-16,1.,0.));
#527=DIRECTION('',(0.,0.,-1.));
#528=DIRECTION('',(-1.,0.,0.));
#529=DIRECTION('',(2.89120579329468E-16,-1.,0.));
#530=DIRECTION('',(0.,0.,-1.));
#531=DIRECTION('',(-1.,0.,0.));
#532=DIRECTION('',(0.,1.,0.));
#533=DIRECTION('',(0.,0.,1.));
#534=DIRECTION('',(0.,0.,-1.));
#535=DIRECTION('',(0.,0.,-1.));
#536=DIRECTION('',(0.965925826289068,0.25881904510252,0.));
#537=DIRECTION('',(-0.25881904510252,0.965925826289069,0.));
#538=DIRECTION('',(0.,0.,-1.));
#539=DIRECTION('',(0.,0.,-1.));
#540=DIRECTION('',(1.,0.,0.));
#541=DIRECTION('',(0.,0.,-1.));
#542=DIRECTION('',(0.,0.,-1.));
#543=DIRECTION('',(0.,-1.,0.));
#544=DIRECTION('',(0.,0.,-1.));
#545=DIRECTION('',(0.,0.,-1.));
#546=DIRECTION('',(0.,0.,-1.));
#547=DIRECTION('',(-1.,-1.44016217075781E-16,0.));
#548=DIRECTION('',(1.44016217075781E-16,-1.,0.));
#549=DIRECTION('',(0.,0.,-1.));
#550=DIRECTION('',(0.,0.,-1.));
#551=DIRECTION('',(-0.965925826289068,0.25881904510252,0.));
#552=DIRECTION('',(-0.25881904510252,-0.965925826289069,0.));
#553=DIRECTION('',(0.,0.,-1.));
#554=DIRECTION('',(0.,0.,-1.));
#555=DIRECTION('',(-1.,0.,0.));
#556=DIRECTION('',(0.,0.,-1.));
#557=DIRECTION('',(-1.,0.,0.));
#558=DIRECTION('',(0.,0.,-1.));
#559=DIRECTION('',(-1.,0.,0.));
#560=DIRECTION('',(0.,0.,-1.));
#561=DIRECTION('',(-1.,0.,0.));
#562=DIRECTION('',(0.,0.,1.));
#563=DIRECTION('',(1.,0.,0.));
#564=DIRECTION('',(0.,0.,1.));
#565=DIRECTION('',(1.,0.,0.));
#566=DIRECTION('',(0.,0.,1.));
#567=DIRECTION('',(0.,0.,1.));
#568=DIRECTION('',(-1.,3.37307342551046E-16,0.));
#569=DIRECTION('',(-3.37307342551046E-16,-1.,0.));
#570=DIRECTION('',(0.,0.,1.));
#571=DIRECTION('',(0.,0.,1.));
#572=DIRECTION('',(1.,0.,0.));
#573=DIRECTION('',(0.,0.,1.));
#574=DIRECTION('',(1.,2.89120579329468E-16,0.));
#575=DIRECTION('',(-2.89120579329468E-16,1.,0.));
#576=DIRECTION('',(1.,-2.89120579329468E-16,0.));
#577=DIRECTION('',(2.89120579329468E-16,1.,0.));
#578=DIRECTION('',(0.,0.,1.));
#579=DIRECTION('',(0.,0.,1.));
#580=DIRECTION('',(0.,0.,1.));
#581=DIRECTION('',(1.,0.,0.));
#582=DIRECTION('',(0.,0.,1.));
#583=DIRECTION('',(-1.,-2.89120579329468E-16,0.));
#584=DIRECTION('',(2.89120579329468E-16,-1.,0.));
#585=DIRECTION('',(0.,0.,1.));
#586=DIRECTION('',(0.,0.,1.));
#587=DIRECTION('',(1.,0.,0.));
#588=CARTESIAN_POINT('',(0.,0.,0.));
#589=CARTESIAN_POINT('',(0.,0.,1.5));
#590=CARTESIAN_POINT('',(8.99999999999999,1.,1.5));
#591=CARTESIAN_POINT('',(11.1,1.,1.5));
#592=CARTESIAN_POINT('',(6.89999999999999,1.,1.5));
#593=CARTESIAN_POINT('',(11.1,-17.079295154185,1.5));
#594=CARTESIAN_POINT('',(11.1,-17.,1.5));
#595=CARTESIAN_POINT('',(8.99999999999999,-17.,1.5));
#596=CARTESIAN_POINT('',(6.90000000000001,-17.,1.5));
#597=CARTESIAN_POINT('',(6.9,0.920704845814968,1.5));
#598=CARTESIAN_POINT('',(7.37683923222572,33.7179724920305,1.5));
#599=CARTESIAN_POINT('',(9.6340115566569,25.294090695815,1.5));
#600=CARTESIAN_POINT('',(14.,8.99999999999996,1.5));
#601=CARTESIAN_POINT('',(4.80438121148274,24.,1.5));
#602=CARTESIAN_POINT('',(4.8043786390514,29.,1.5));
#603=CARTESIAN_POINT('',(8.64101615137755,29.,1.5));
#604=CARTESIAN_POINT('',(-4.80437863905142,29.,1.5));
#605=CARTESIAN_POINT('',(-4.80438121148276,24.,1.5));
#606=CARTESIAN_POINT('',(-9.63401155965668,25.2940906846197,1.5));
#607=CARTESIAN_POINT('',(-7.37683923222572,33.7179724920305,1.5));
#608=CARTESIAN_POINT('',(-14.,8.99999999999998,1.5));
#609=CARTESIAN_POINT('',(-14.,14.0567076766073,1.5));
#610=CARTESIAN_POINT('',(-14.,-17.,1.5));
#611=CARTESIAN_POINT('',(-9.00000000000001,-17.,1.5));
#612=CARTESIAN_POINT('',(-9.00000000000001,-22.,1.5));
#613=CARTESIAN_POINT('',(-14.,-22.,1.5));
#614=CARTESIAN_POINT('',(8.99999999999999,-22.,1.5));
#615=CARTESIAN_POINT('',(8.99999999999999,-17.,1.5));
#616=CARTESIAN_POINT('',(14.,-17.,1.5));
#617=CARTESIAN_POINT('',(14.,-22.079295154185,1.5));
#618=CARTESIAN_POINT('',(-9.89340875119336E-15,20.,1.5));
#619=CARTESIAN_POINT('',(-4.05000000000001,20.,1.5));
#620=CARTESIAN_POINT('',(-9.00000000000001,1.,1.5));
#621=CARTESIAN_POINT('',(-11.1,1.,1.5));
#622=CARTESIAN_POINT('',(-6.90000000000001,1.,1.5));
#623=CARTESIAN_POINT('',(-6.9,0.920704845814968,1.5));
#624=CARTESIAN_POINT('',(-6.90000000000001,-17.,1.5));
#625=CARTESIAN_POINT('',(-9.00000000000001,-17.,1.5));
#626=CARTESIAN_POINT('',(-11.1,-17.,1.5));
#627=CARTESIAN_POINT('',(-11.1,-17.079295154185,1.5));
#628=CARTESIAN_POINT('',(0.,0.,0.));
#629=CARTESIAN_POINT('',(11.1,-3.20923843055709E-15,0.));
#630=CARTESIAN_POINT('',(11.1,1.,0.));
#631=CARTESIAN_POINT('',(11.1,-17.,0.));
#632=CARTESIAN_POINT('',(8.99999999999999,1.,0.));
#633=CARTESIAN_POINT('',(6.9,1.,0.));
#634=CARTESIAN_POINT('',(6.9,1.99493199737333E-15,0.));
#635=CARTESIAN_POINT('',(6.9,-17.,0.));
#636=CARTESIAN_POINT('',(8.99999999999999,-17.,0.));
#637=CARTESIAN_POINT('',(-9.89340875119336E-15,20.,0.));
#638=CARTESIAN_POINT('',(-4.05000000000001,20.,0.));
#639=CARTESIAN_POINT('',(8.64101615137755,29.,0.));
#640=CARTESIAN_POINT('',(-4.80437863905142,29.,0.));
#641=CARTESIAN_POINT('',(4.8043786390514,29.,0.));
#642=CARTESIAN_POINT('',(4.80438121148274,24.,0.));
#643=CARTESIAN_POINT('',(9.6340115566569,25.294090695815,0.));
#644=CARTESIAN_POINT('',(7.37683923222572,33.7179724920305,0.));
#645=CARTESIAN_POINT('',(14.,8.99999999999996,0.));
#646=CARTESIAN_POINT('',(14.,-22.079295154185,0.));
#647=CARTESIAN_POINT('',(14.,-17.,0.));
#648=CARTESIAN_POINT('',(8.99999999999999,-17.,0.));
#649=CARTESIAN_POINT('',(8.99999999999999,-22.,0.));
#650=CARTESIAN_POINT('',(-14.,-22.,0.));
#651=CARTESIAN_POINT('',(-9.00000000000001,-22.,0.));
#652=CARTESIAN_POINT('',(-9.00000000000001,-17.,0.));
#653=CARTESIAN_POINT('',(-14.,-17.,0.));
#654=CARTESIAN_POINT('',(-14.,14.0567076766073,0.));
#655=CARTESIAN_POINT('',(-14.,8.99999999999998,0.));
#656=CARTESIAN_POINT('',(-7.37683923222572,33.7179724920305,0.));
#657=CARTESIAN_POINT('',(-9.63401155965668,25.2940906846197,0.));
#658=CARTESIAN_POINT('',(-4.80438121148276,24.,0.));
#659=CARTESIAN_POINT('',(-6.9,2.32742066360222E-15,0.));
#660=CARTESIAN_POINT('',(-6.90000000000001,-17.,0.));
#661=CARTESIAN_POINT('',(-6.90000000000001,1.,0.));
#662=CARTESIAN_POINT('',(-9.00000000000001,1.,0.));
#663=CARTESIAN_POINT('',(-11.1,1.,0.));
#664=CARTESIAN_POINT('',(-11.1,-3.20923843055709E-15,0.));
#665=CARTESIAN_POINT('',(-11.1,-17.,0.));
#666=CARTESIAN_POINT('',(-9.00000000000001,-17.,0.));
#667=CARTESIAN_POINT('',(8.64101615137755,29.,1.5));
#668=CARTESIAN_POINT('',(4.80438121148274,29.,1.5));
#669=CARTESIAN_POINT('',(-4.80438121148276,29.,1.5));
#670=CARTESIAN_POINT('',(7.37683923222572,33.7179724920305,1.5));
#671=CARTESIAN_POINT('',(9.63401034292809,25.2940952255126,1.5));
#672=CARTESIAN_POINT('',(14.,8.99999999999997,1.5));
#673=CARTESIAN_POINT('',(14.,-22.079295154185,1.5));
#674=CARTESIAN_POINT('',(14.,-17.,1.5));
#675=CARTESIAN_POINT('',(-14.,-22.,1.5));
#676=CARTESIAN_POINT('',(8.99999999999999,-22.,1.5));
#677=CARTESIAN_POINT('',(-9.00000000000001,-22.,1.5));
#678=CARTESIAN_POINT('',(-14.,14.0567076766073,1.5));
#679=CARTESIAN_POINT('',(-14.,-17.,1.5));
#680=CARTESIAN_POINT('',(-14.,8.99999999999998,1.5));
#681=CARTESIAN_POINT('',(-7.37683923222572,33.7179724920305,1.5));
#682=CARTESIAN_POINT('',(-9.63401034292809,25.2940952255126,1.5));
#683=CARTESIAN_POINT('',(-9.00000000000001,-17.,1.5));
#684=CARTESIAN_POINT('',(8.99999999999999,-17.,1.5));
#685=CARTESIAN_POINT('',(-4.80438121148276,24.,1.5));
#686=CARTESIAN_POINT('',(4.80438121148274,24.,1.5));
#687=CARTESIAN_POINT('',(-9.89340875119336E-15,20.,-11.7611960393412));
#688=CARTESIAN_POINT('',(-9.00000000000001,1.,-9.54698060409307));
#689=CARTESIAN_POINT('',(-6.90000000000001,1.,-9.54698060409307));
#690=CARTESIAN_POINT('',(-11.1,1.,-9.54698060409307));
#691=CARTESIAN_POINT('',(-6.9,0.920704845814968,-9.54698060409307));
#692=CARTESIAN_POINT('',(-6.90000000000001,-17.,-9.54698060409307));
#693=CARTESIAN_POINT('',(-9.00000000000001,-17.,-9.54698060409307));
#694=CARTESIAN_POINT('',(-11.1,-17.,-9.54698060409307));
#695=CARTESIAN_POINT('',(-11.1,-17.079295154185,-9.54698060409307));
#696=CARTESIAN_POINT('',(11.1,-17.079295154185,-9.54698060409307));
#697=CARTESIAN_POINT('',(11.1,-17.,-9.54698060409307));
#698=CARTESIAN_POINT('',(11.1,1.,-9.54698060409307));
#699=CARTESIAN_POINT('',(8.99999999999999,1.,-9.54698060409307));
#700=CARTESIAN_POINT('',(6.89999999999999,1.,-9.54698060409307));
#701=CARTESIAN_POINT('',(6.9,0.920704845814968,-9.54698060409307));
#702=CARTESIAN_POINT('',(6.9,-17.,-9.54698060409307));
#703=CARTESIAN_POINT('',(8.99999999999999,-17.,-9.54698060409307));
#704=MECHANICAL_DESIGN_GEOMETRIC_PRESENTATION_REPRESENTATION('',(#419),
#705);
#705=(
GEOMETRIC_REPRESENTATION_CONTEXT(3)
GLOBAL_UNCERTAINTY_ASSIGNED_CONTEXT((#706))
GLOBAL_UNIT_ASSIGNED_CONTEXT((#709,#708,#707))
REPRESENTATION_CONTEXT('À2.039 Êðîíøòåéí ÊÏ-Ì08-Ñ',
'TOP_LEVEL_ASSEMBLY_PART')
);
#706=UNCERTAINTY_MEASURE_WITH_UNIT(LENGTH_MEASURE(0.005),#709,
'DISTANCE_ACCURACY_VALUE','Maximum Tolerance applied to model');
#707=(
NAMED_UNIT(*)
SI_UNIT($,.STERADIAN.)
SOLID_ANGLE_UNIT()
);
#708=(
NAMED_UNIT(*)
PLANE_ANGLE_UNIT()
SI_UNIT($,.RADIAN.)
);
#709=(
LENGTH_UNIT()
NAMED_UNIT(*)
SI_UNIT(.MILLI.,.METRE.)
);
#710=PRODUCT_DEFINITION_SHAPE('','',#711);
#711=PRODUCT_DEFINITION('','',#713,#712);
#712=PRODUCT_DEFINITION_CONTEXT('',#719,'design');
#713=PRODUCT_DEFINITION_FORMATION_WITH_SPECIFIED_SOURCE('','',#715,
 .NOT_KNOWN.);
#714=PRODUCT_RELATED_PRODUCT_CATEGORY('','',(#715));
#715=PRODUCT('À2.039 Êðîíøòåéí ÊÏ-Ì08-Ñ','À2.039 Êðîíøòåéí ÊÏ-Ì08-Ñ',
'À2.039 Êðîíøòåéí ÊÏ-Ì08-Ñ',(#717));
#716=PRODUCT_CATEGORY('','');
#717=PRODUCT_CONTEXT('',#719,'mechanical');
#718=APPLICATION_PROTOCOL_DEFINITION('international standard',
'automotive_design',2010,#719);
#719=APPLICATION_CONTEXT(
'core data for automotive mechanical design processes');
ENDSEC;
END-ISO-10303-21;
